Menu
Chord Away From The Sun + Tab By 3 Doors Down
Chord Lagu Away From The Sun + Tab
Kunci Gitar Away From The Sun + Tab
Loading...
Intro:

e --------------------------------------
B ----1-----1-----1----1-----0h1---1----
G ------2-----2----------0-------0------
D --3-----3-----3----2-----2------------
A --------------------------------------
E --------------------------------------

e ---------------------------------0----
B ---1-----1-----1----1-----0h1---------
G -----0-----0----------0-------0-------
D -------2-----2----------2-------------
A -3----------------2-------------------
E --------------------------------------

e --------------------------------------
B ----1-----1-----1----1-----0h1---1----
G ------2-----2----------0-------0------
D --3-----3-----3----2-----2------------
A --------------------------------------
E ------------------------------------3-

e --------------------------------------
B 3---1---0--------3---1---0------------
G --0---0---0--------0---0---0----------
D ------------0----------------0--------
A --------------------------------------
E -----------------3--------------------

FC
It's down to this
AmGF
I've got to make this life make sense
CG
Can anyone tell what I've done

FC
I miss the life
AmGF
I miss the colors of the world
CG
Can anyone tell where I am

FCAm
Cause now again I've found myself so far down
GFC
Away from the sun that shines into the darkest place
AmGFCAm
I'm so far down away from the sun again
GFCG
Away from the sun again

FC
I'm over this
AmGF
I'm tired of livin' in the dark
CG
Can anyone see me down here
FC
The feeling's gone
AmG
There's nothing left to lift me up
FCG
Back into the world I know

FCAm
And now again I've found myself so far down
GFC
Away from the sun that shines into the darkest place
AmG
I'm so far down away from the sun
FC
That shines to light the way for me to
AmG
find my way back into the arms
FC
That care about the ones like me
AmGFCAmG
I'm so far down away from the sun again

FC
It's down to this
AmGF
I've got to make this life make sense
CG
And now I can't tell what I've done

FCAm
And now again I've found myself so far down
GFCG
Away from the sun that shines to light the way for me
FCAm
And now again I've found myself so far down
GFC
Away from the sun that shines into the darkest place
AmG
I'm so far down away from the sun
FC
That shines to light the way for me to
AmG
find my way back into the arms
FC
That care about the ones like me
AmGFCAmG
I'm so far down away from the sun again

Chord Gitar Terkait