Menu
Chord Blood Sweat And Tears - BTS
Chord Lagu Blood Sweat And Tears
Kunci Gitar Blood Sweat And Tears
[Intro]
            Cm      Bb
nae pi ttam nunmul
            Ab
nae majimak chumeul
Bb          Cm   Bb
da gajyeoga ga~
Ab  Bb
ga~
            Cm      Bb
nae pi ttam nunmul
            Ab
nae chagaun sumeul
Bb          Cm  Bb
da gajyeoga ga
Ab
ga~
            Cm     Bb  Ab  Bb
nae pi ttam nunmul

Cm Bb Ab

E|------------------------------------------|
B|--8-8-6-8-6-4--------8-8-6-8-11-11-8------|
E|-5------------5--5-5----------------------|
D|------------------------------------------|(2x)
A|------------------------------------------|
E|------------------------------------------|

E|------------------------------------------|
B|------------------------------------------|
E|-5-5-5-7-7-7-8-8-8-10-10-10---------------|
D|------------------------------------------|
A|------------------------------------------|
E|------------------------------------------|

[Rap 1]

E|-------------------------------------------------|
B|-------------------------------------------------|
E|-8-10-12-7-5-8-10-12--8-10-12-7-5-8-8-8--15-12---|
D|-------------------------------------------------|
A|-------------------------------------------------|
E|-------------------------------------------------|

    Cm      Bb
nae pi ttam nunmuldo
    Ab        Bb
nae mom maeum yeonghondo
      Cm                   Bb
neoui geosin geol jal algo isseo
      Ab                       
igeon nareul beolbatge hal jumun

[Rap 2]

E|-------------------------------------------------|
B|-------------------------------------------------|
E|-8-10-12-7-5-8-10-12--8-10-12-7-5-8-8-8--15-12---|
D|-------------------------------------------------|
A|-------------------------------------------------|
E|-------------------------------------------------|

 Eb    Dm   Cm   
Peaches and cream
             Bb
Sweeter than sweet
          Ab
Chocolate cheeks
              Bb
And chocolate wings
          Cm                Bb
But neoui nalgaeneun akmaui geot
          Ab                Bb
neoui geu sweet apen bitter bitter

[Rap 3]

E|-------------------------------------------------|
B|-------------------------------------------------|
E|-8-10-12-7-5-8-10-12--8-10-12-7-5-8-8-8--15-12---|
D|-------------------------------------------------|
A|-------------------------------------------------|
E|-------------------------------------------------|

        Cm
Kiss me apado dwae
           Bb
eoseo nal joyeojwo
           Ab              Bb
deo isang apeul sudo eopge
         Cm                   Bb
Baby chwihaedo dwae ije neol deurikyeo
     Ab
mok gipsugi neoran wiseuki

[Pre-Chorus]
            Cm      Bb
nae pi ttam nunmul
            Ab
nae majimak chumeul
Bb          Cm   Bb
da gajyeoga ga~
Ab  Bb
ga~
            Cm      Bb
nae pi ttam nunmul
            Ab
nae chagaun sumeul
Bb          Cm  Bb
da gajyeoga ga
Ab
ga~

[Chorus 1]

E|------------------------------------------|
B|--8-8-6-8-6-4--------8-8-6-8-11-11-8------|
E|-5------------5--5-5----------------------|
D|------------------------------------------|(2x)
A|------------------------------------------|
E|------------------------------------------|

E|------------------------------------------|
B|------------------------------------------|
E|-5-5-5-7-7-7-8-8-8-10-10-10---------------|
D|------------------------------------------|
A|------------------------------------------|
E|------------------------------------------|

                Cm     Bb
wonhae manhi manhi yah
       Ab   Bb
manhi manhi
                Cm     Bb
wonhae manhi manhi yah
        Ab
manhi manhi manhi manhi

[Chorus 2]

E|------------------------------------------|
B|--8-8-6-8-6-4--------8-8-6-8-11-11-8------|
E|-5------------5--5-5----------------------|
D|------------------------------------------|(2x)
A|------------------------------------------|
E|------------------------------------------|

E|------------------------------------------|
B|------------------------------------------|
E|-5-5-5-7-7-7-8-8-8-10-10-10---------------|
D|------------------------------------------|
A|------------------------------------------|
E|------------------------------------------|

                Cm     Bb
wonhae manhi manhi yah
       Ab   Bb
manhi manhi
                Cm     Bb
wonhae manhi manhi yah
        Ab
manhi manhi manhi manhi

[Rap 4]

E|-------------------------------------------------|
B|-------------------------------------------------|
E|-8-10-12-7-5-8-10-12--8-10-12-7-5-8-8-8--15-12---|
D|-------------------------------------------------|
A|-------------------------------------------------|
E|-------------------------------------------------|

 Cm            Bb
apado dwae nal mukkeojwo
   Ab
naega domangchil su eopge
  Cm             Bb
kkwak jwigo nal heundeureojwo
   Ab
naega jeongsin mot charige

[Rap 5]

E|-------------------------------------------------|
B|-------------------------------------------------|
E|-8-10-12-7-5-8-10-12--8-10-12-7-5-8-8-8--15-12---|
D|-------------------------------------------------|
A|-------------------------------------------------|
E|-------------------------------------------------|

                Cm
Kiss me on the lips lips
        Bb
dulmanui bimil
        Ab
neoran gamoge jungdokdwae gipi
   Cm                  Bb
niga anin dareun saram seomgiji mothae
  Ab
almyeonseodo samkyeobeorin dogi deun seongbae

[Pre-Chorus]
            Cm      Bb
nae pi ttam nunmul
            Ab
nae majimak chumeul
Bb          Cm   Bb
da gajyeoga ga~
Ab  Bb
ga~
            Cm      Bb
nae pi ttam nunmul
            Ab
nae chagaun sumeul
Bb          Cm  Bb
da gajyeoga ga
Ab
ga~

[Chorus 1]

E|------------------------------------------|
B|--8-8-6-8-6-4--------8-8-6-8-11-11-8------|
E|-5------------5--5-5----------------------|
D|------------------------------------------|(2x)
A|------------------------------------------|
E|------------------------------------------|

E|------------------------------------------|
B|------------------------------------------|
E|-5-5-5-7-7-7-8-8-8-10-10-10---------------|
D|------------------------------------------|
A|------------------------------------------|
E|------------------------------------------|

                Cm     Bb
wonhae manhi manhi yah
       Ab   Bb
manhi manhi
                Cm     Bb
wonhae manhi manhi yah
        Ab
manhi manhi manhi manhi

[Chorus 2]

E|------------------------------------------|
B|--8-8-6-8-6-4--------8-8-6-8-11-11-8------|
E|-5------------5--5-5----------------------|
D|------------------------------------------|(2x)
A|------------------------------------------|
E|------------------------------------------|

E|------------------------------------------|
B|------------------------------------------|
E|-5-5-5-7-7-7-8-8-8-10-10-10---------------|
D|------------------------------------------|
A|------------------------------------------|
E|------------------------------------------|

                Cm     Bb
wonhae manhi manhi yah
       Ab   Bb
manhi manhi
                Cm     Bb
wonhae manhi manhi yah
        Ab
manhi manhi manhi manhi

[Bridge]
       Fm                 Cm
nareul budeureopge jugyeojwo
      Fm         Bb        Cm
neoui songillo nun gamgyeojwo
              Fm
eochapi geobuhal sujocha eopseo
              Eb
deoneun domanggal sujocha eopseo
       Ab
niga neomu dalkomhae neomu dalkomhae
   Bb
neomu dalkomhaeseo

[Outro]

E|------------------------------------------|
B|--8-8-6-8-6-4--------8-8-6-8-11-11-8------|
E|-5------------5--5-5----------------------|
D|------------------------------------------|(2x)
A|------------------------------------------|
E|------------------------------------------|

E|------------------------------------------|
B|------------------------------------------|
E|-5-5-5-7-7-7-8-8-8-10-10-10---------------|
D|------------------------------------------|
A|------------------------------------------|
E|------------------------------------------|

            Cm     Bb  Ab  Bb
nae pi ttam nunmul

Cm Bb Ab
            Cm     Bb  Ab  Bb
nae pi ttam nunmul

Cm Bb Ab

Chord Gitar Terkait