Menu
Chord Camelia [tab] By Irwansyah
Chord Lagu Camelia [tab]
Kunci Gitar Camelia [tab]

e|-----------------------------------------------------------------|
B|-----------------------------------------------------------------|
G|-9-9-9-9------7-7--7/9-------------------------------------------|
D|---------9-10----------10----------------------------------------|
A|-----------------------------------------------------------------|
E|-----------------------------------------------------------------|

e|-----------------------------------------------------------------|
B|-----------------------------------------------------------------|
G|-7-7-7-7---------------------------------------------------------|
D|---------7-9-10-10--10/12-19-------------------------------------|
A|-----------------------------------------------------------------|
E|-----------------------------------------------------------------|

e|-----------------------------------------------------------------|
B|-----------------------------------------------------------------|
G|-----------------------------------------------------------------|
D|-10-10-10-10-5-7-9-9--9/10-7---5-4------4-5-4---------5-4--------|
A|-----------------------------------7-6-7-7---7------7----7-5-7~~~|
E|-----------------------------------------------------------------|

tabs   :camelia
singer :Irwansyah
tab by :dimas
e-mail :[email protected]
 

Chord Gitar Terkait