Menu
Chord Cari Jodoh [intro Tab] By Wali
Chord Lagu Cari Jodoh [intro Tab]
Kunci Gitar Cari Jodoh [intro Tab]
Loading...
Cari jodoh Intro Tab: by heri
contact me at heri_andra@yahoo.com

E----------------------------------------
B----------------------8----------------
G-77-9-10-7-9-10-9-10--9-9-9-9-7--7-9
D----------------------------------10---
A----------------------------------------
E----------------------------------------


E----------------------------------------
B----------------------------------------
G-9-9-10-7-9-10-7--7-7-----------------
D----------------------10-10-8-8-7--
A----------------------------------------
E----------------------------------------


E----------------------------------------
B----------------------------------------
G----9-10-9-10-7---9h10-----------------
D-7b-------------7------7~--------------
A----------------------------------------
E----------------------------------------
 

Chord Gitar Terkait