Menu

Chord D'Masiv & Rossa

Chord Diantara Kalian [Interlude Tab] By D'Masiv & Rossa
Chord Lagu Diantara Kalian [Interlude Tab]
Kunci Gitar Diantara Kalian [interlude Tab]
Solo Gitar Diantara Kalian - Dmasiv

E|--------------------------------------
B|--------------------------------------
G|--------------------------------------
D|-9\7-5---5---5-------5--5---7b--------
A|-------7---7-------7--7--7------------
E|--------------------------------------

|--------------------------------------
|--------------------------------------
|--------------------------------------
|-9\7-5---5---5---5--5---5h7p5p4--4----
|-------7---7---7--7--7----------------
|--------------------------------------



|------------------------------------------------
|-------7-8---8p7------------7-8--8p7-------/10--
|----------------7p4------------------7p4--------
|--5-7h9-------------5----5h7--------------------
|------------------------------------------------
|------------------------------------------------


|------------------------------------------------15-----------------14---15---
|-10-10-10b--10b-10b-10b--8---8h10-8------15-15b---15b-15b-15b-15br----15--12~
|---------------------------9-------------------------------------------------
|-----------------------------------------------------------------------------
|-----------------------------------------------------------------------------
|-----------------------------------------------------------------------------

\ = back slide
b = bending (angkat senar)
r = release bending
 

Chord Gitar Terkait