Menu
Chord Emang Dasar [interlude Tab] By Wali
Chord Lagu Emang Dasar [interlude Tab]
Kunci Gitar Emang Dasar [interlude Tab]
Loading...

E-10-9-10--------9-10-9-10--------------
B---------12---12-----------------------
G------------11-------------12b----------
D----------------------------------------
A----------------------------------------
E----------------------------------------

E-9-8-9--------8-9-8-9-----------------
B--------11---11---------11b--------------
G----------10----------------------------
D----------------------------------------
A----------------------------------------
E----------------------------------------

E-8-7-8---------7-8-7-8----------------
B--------10---10----------10b-----------
G-----------9---------------------------
D----------------------------------------
A----------------------------------------
E----------------------------------------

E-7-6-7--------6-7-6h9-6h9-6h9-6h9---
B--------9---9--------------------------
G----------8----------------------------
D----------------------------------------
A----------------------------------------
E----------------------------------------

E-10-9-10--------9-10-9-10--------------
B---------12---12-----------------------
G------------11-------------12b----------
D----------------------------------------
A----------------------------------------
E----------------------------------------

E-9-8-9--------8-9-8-9-----------------
B--------11---11---------11b--------------
G----------10----------------------------
D----------------------------------------
A----------------------------------------
E----------------------------------------

E-8-7-8---------7-8-7-8----------------
B--------10---10----------10b-----------
G-----------9---------------------------
D----------------------------------------
A----------------------------------------
E----------------------------------------

E-7-6-7--------6-b7--6-9--9-12b~~-----
B--------9---9------------11-------------
G----------8----------------------------
D----------------------------------------
A----------------------------------------
E----------------------------------------



Interlude Tab: by heri/dengseng
heri_andra@yahoo.com or
http://heriandra.wen.ru

 

Chord Gitar Terkait