Menu
Chord Hijrah Ke London (tab) v2 By The Changcuters
Chord Lagu Hijrah Ke London (tab) v2
Kunci Gitar Hijrah Ke London (tab) V2
By:tHoPo & BeYe
The Changcuters / Hijrah Ke London  [Tab]

[Tab 1]
e|----------------------------------------------------------------------------------|
B|----------------------------------------------------------------------------------|
G|--5h7-7-5-7-5-7--7/8-8-7-8-7-8--8/10-10-8-10-8-10--10/11-11-11-11-11--10-8----|
D|----------------------------------------------------------------------------------|
A|----------------------------------------------------------------------------------|
E|----------------------------------------------------------------------------------|

e|----------------------------------------------------------------------------------|
B|----------------------------------------------------------------------------------|
G|--5h7-7-5-7-5-7--7/8-8-7-8-7-8--8/10-10-8-10-8-10--10/11-11-11-11-11--10-8----|
D|----------------------------------------------------------------------------------|
A|----------------------------------------------------------------------------------|
E|----------------------------------------------------------------------------------|



e|--5h6-6-6-6-9-6-5-5-5--5-6-8-6-5-3---3-5-5/6-6-6-6-8-6-5-------------|
B|----------------------------------------------------------------------|
G|----------------------------------------------------------------------|
D|----------------------------------------------------------------------|
A|----------------------------------------------------------------------|
E|----------------------------------------------------------------------|

e|--5h6-6-6-6-9-6-5-5-5--5-6-8-6-5-3---3-5-5/6-6-6-6-8-6-8-8/10--------|
B|----------------------------------------------------------------------|
G|----------------------------------------------------------------------|
D|----------------------------------------------------------------------|
A|----------------------------------------------------------------------|
E|----------------------------------------------------------------------|

e|--10-8--8-10--10-8--8-10--10-8--8-10-10-10-10-10-10-10-10-10-10-10---|
B|----------------------------------------------------------------------|
G|----------------------------------------------------------------------|
D|----------------------------------------------------------------------|
A|----------------------------------------------------------------------|
E|----------------------------------------------------------------------|


[Tab 2]
e|--4h5-5-4-5-4-5---5/7-7-5-7-5-7---7/9-9-7-9-7-9---9/10-10-10-10-10---9-7----|
B|----------------------------------------------------------------------------|
G|----------------------------------------------------------------------------|
D|----------------------------------------------------------------------------|
A|----------------------------------------------------------------------------|
E|----------------------------------------------------------------------------|

e|--4h5-5-4-5-4-5---5/7-7-5-7-5-7---7/9-9-7-9-7-9---9/10-10-10-10-10---9-7----|
B|----------------------------------------------------------------------------|
G|----------------------------------------------------------------------------|
D|----------------------------------------------------------------------------|
A|----------------------------------------------------------------------------|
E|----------------------------------------------------------------------------|



e|------7-----7-----7-9-9/10-10-10-10-10-9-7-9---9-7-7---------------7-7---7-7-----7-------|
B|--7h9--7h9--7h9-----------------------------------9--9-7-------7-9-9-------9-9-7---------|
G|--------------------------------------------------------------7-9----------------------------|
D|---------------------------------------------------------------------------------------------|
A|---------------------------------------------------------------------------------------------|
E|---------------------------------------------------------------------------------------------|

e|----7-----7-----7-9-9/10-10-10-10-10-9-7-9---9-7-7-7---7-7----7~---6~---4~---7-7-7-7-8-6-7|
B|7h9--7h9--7h9-----------------------------------9-9------9-9-7----------------------------|
G|----------------------------------------------------------------------------------------------|
D|----------------------------------------------------------------------------------------------|
A|----------------------------------------------------------------------------------------------|
E|----------------------------------------------------------------------------------------------|

 

Chord Gitar Terkait