Menu
Chord In My Life - The Beatles
Chord Lagu In My Life
Kunci Gitar In My Life

[Intro]   A  E

[Verse 1]
          A      E      F#m   A7/G
There are places I'll remember
       D Dm        A
All my life though some have changed
        A    E       F#m    A7/G
Some forever not for better
          D Dm     A
Some have gone and some remain
          F#m               D
All these places have their moments
     G                    A
With lovers and friends I still can recall
         F#m               B
Some are dead and some are living
   Dm           A
In my life I've loved them all

   A             E
e|-----5---------4-----------------|
B|-------------5-------------------|
G|-6-------6h7---4-----------------|
D|---------------------------------|
A|-0-------------------------------|
E|---------------0-----------------|

[Verse 2]
       A         E           F#m    A7/G
But of all these friends and lovers
         D  Dm     A
There is no one compares with you
          A        E          F#m    A7/G
And these memories lose their meaning
       D        Dm      A
When I think of love as something new
         F#m                    D
Though I know I'll never lose affection
    G                      A
For people and things that went before
  F#m                             B
I know I'll often stop and think about them
   Dm        A
In my life I love you more

[Solo]
A   E   | F#m A7/G | D   Dm  | A       | x2

[Verse 3]
         F#m                    D
Though I know I'll never lose affection
    G                      A
For people and things that went before
  F#m                             B
I know I'll often stop and think about them
   Dm        A
In my life I love you more

   A             E
e|-----5---------4-----------------|
B|-------------5-------------------|
G|-6-------6h7---4-----------------|
D|---------------------------------|
A|-0-------------------------------|
E|---------------0-----------------|

   Dm
In my life ... I love you

   A
  more           E        E7        A
e|-----5---------4----------4-2-4---5---------------|
B|-------------5-----------3--------5---------------|
G|-6-------6h7---4--------4---------6---------------|
D|-----------------------2--------------------------|
A|-0------------------------------------------------|
E|---------------0----------------------------------|

Chord Gitar Terkait