Menu

Chord Log Guns

Chord Kangen (Guitar Tabs) By Log Guns
Chord Lagu Kangen (Guitar Tabs)
Kunci Gitar Kangen (guitar Tabs)
                                                                                           Kangen                                                                                             


                                                                                                                                                                                      Log Guns
Gitar



     H         E    E   E   E     H.                E   E       H          E  S  E  S  E      Q.       Q.       S   S  E       H         E    E   E   E     H.                E   E    
E||----------------------------|----------------------------|-----------------------------|--------------------------------|-----------------------------|----------------------------|
B||-----------11s--10--10s--8--|--8~------------10g11--10~--|---L~--------10----11----13--|--13b------13b------13S-15-11~--|---L--------11s--10--10s--8--|--8~------------13g15--13~--|
G||----------------------------|----------------------------|-----------------------------|--------------------------------|-----------------------------|----------------------------|
D||----------------------------|----------------------------|-----------------------------|--------------------------------|-----------------------------|----------------------------|
A||----------------------------|----------------------------|-----------------------------|--------------------------------|-----------------------------|----------------------------|
D||----------------------------|----------------------------|-----------------------------|--------------------------------|-----------------------------|----------------------------|


   H          E    E   E    E      W                                                                                                                                            
-------------------------------|---------------------|-------------------||--------------------|-------------------|-------------------|-------------------|-------------------|
---L~--------11s--10--10s--11--|--11~----------------|-------------------||--------------------|-------------------|-------------------|-------------------|-------------------|
-------------------------------|---------------------|-------------------||*-------------------|-------------------|-------------------|-------------------|-------------------|
-------------------------------|---------------------|-------------------||*-------------------|-------------------|-------------------|-------------------|-------------------|
-------------------------------|---------------------|-------------------||--------------------|-------------------|-------------------|-------------------|-------------------|
-------------------------------|---------------------|-------------------||--------------------|-------------------|-------------------|-------------------|-------------------|


-------------------|-------------------|--------------------||-------------------|-------------------||--------------------|-------------------|-------------------|-------------------|
-------------------|-------------------|--------------------||-------------------|-------------------||--------------------|-------------------|-------------------|-------------------|
-------------------|-------------------|-------------------*||-------------------|-------------------||*-------------------|-------------------|-------------------|-------------------|
-------------------|-------------------|-------------------*||-------------------|-------------------||*-------------------|-------------------|-------------------|-------------------|
-------------------|-------------------|--------------------||-------------------|-------------------||--------------------|-------------------|-------------------|-------------------|
-------------------|-------------------|--------------------||-------------------|-------------------||--------------------|-------------------|-------------------|-------------------|


-------------------|-------------------|-------------------|--------------------||-------------------|-------------------|-------------------|-------------------||--------------------|
-------------------|-------------------|-------------------|--------------------||-------------------|-------------------|-------------------|-------------------||--------------------|
-------------------|-------------------|-------------------|-------------------*||-------------------|-------------------|-------------------|-------------------||*-------------------|
-------------------|-------------------|-------------------|-------------------*||-------------------|-------------------|-------------------|-------------------||*-------------------|
-------------------|-------------------|-------------------|--------------------||-------------------|-------------------|-------------------|-------------------||--------------------|
-------------------|-------------------|-------------------|--------------------||-------------------|-------------------|-------------------|-------------------||--------------------|


-------------------|-------------------|-------------------|-------------------|-------------------|-------------------|--------------------||-------------------|-------------------|
-------------------|-------------------|-------------------|-------------------|-------------------|-------------------|--------------------||-------------------|-------------------|
-------------------|-------------------|-------------------|-------------------|-------------------|-------------------|-------------------*||-------------------|-------------------|
-------------------|-------------------|-------------------|-------------------|-------------------|-------------------|-------------------*||-------------------|-------------------|
-------------------|-------------------|-------------------|-------------------|-------------------|-------------------|--------------------||-------------------|-------------------|
-------------------|-------------------|-------------------|-------------------|-------------------|-------------------|--------------------||-------------------|-------------------|


|--------------------|-------------------|-------------------|-------------------|-------------------|-------------------|-------------------|--------------------||-------------------|
|--------------------|-------------------|-------------------|-------------------|-------------------|-------------------|-------------------|--------------------||-------------------|
|*-------------------|-------------------|-------------------|-------------------|-------------------|-------------------|-------------------|-------------------*||-------------------|
|*-------------------|-------------------|-------------------|-------------------|-------------------|-------------------|-------------------|-------------------*||-------------------|
|--------------------|-------------------|-------------------|-------------------|-------------------|-------------------|-------------------|--------------------||-------------------|
|--------------------|-------------------|-------------------|-------------------|-------------------|-------------------|-------------------|--------------------||-------------------|


                                          H         Q    Q       Q.      E  Q.      E     H           Q    Q       Q.     E  Q.     E     H          Q    Q       Q.      E  Q.      E   
-------------------|-------------------|----------------------|------------------------|------------------------|----------------------|-----------------------|------------------------|
-------------------|-------------------|----------------------|------------------------|------------------------|----------------------|-----------------------|------------------------|
-------------------|-------------------|----------------------|------------------------|------------------------|-------------------7--|--7~-------------------|------------------------|
-------------------|-------------------|-----------/8----7----|---------------------7--|--7~--------/10----8----|--5------8--8---------|------------/8----7----|---------------------7--|
-------------------|-------------------|----------------------|--5~------8--8~---------|------------------------|----------------------|-----------------------|--5~------8--8~---------|
-------------------|-------------------|----------------------|------------------------|------------------------|----------------------|-----------------------|------------------------|


                                                                                     PM PM PM PM PM PM PM PM PM PM PM PM PM PM PM PM    PM PM PM PM PM PM PM PM PM PM PM PM PM PM PM PM  
  H           Q    Q       Q.      S  S E  S  S S  S S S     H          Q    Q       S  S  S  S  S  S  S  S  S  S  S  S  S  S  S  S     S  S  S  S  S  S  S  S  S  S  S  S  S  S  S  S   
------------------------|---------------------------------|-----------------------|--------------------------------------------------|--------------------------------------------------|
------------------------|---------------------------------|-----------------------|--------------------------------------------------|--------------------------------------------------|
------------------------|---------------3-------3S-5-3----|------------/3----5----|--7--7--7--7--7--7--5-----7--7--7--7--7--7--5-----|--7--7--7--7--7--7--8--8--8--8--7--7--5--5--------|
--7~--------/10----8----|--5~------3s-5----3s-5--------3s-|--5~-------------------|-----------------------8-----------------------8--|--------------------------------------------8--8--|
------------------------|---------------------------------|-----------------------|--------------------------------------------------|--------------------------------------------------|
------------------------|---------------------------------|-----------------------|--------------------------------------------------|--------------------------------------------------|


  PM PM PM PM PM PM PM PM PM PM PM PM PM PM PM PM    PM PM PM PM PM PM PM PM PM PM PM PM PM PM PM PM    PM PM PM PM PM PM PM PM PM PM PM PM PM PM PM PM  
  S  S  S  S  S  S  S  S  S  S  S  S  S  S  S  S     S  S  S  S  S  S  S  S  S  S  S  S  S  S  S  S     S  S  S  S  S  S  S  S  S  S  S  S  S  S  S  S   
--------------------------------------------------|--------------------------------------------------|--------------------------------------------------|
--------------------------------------------------|--------------------------------------------------|--------------------------------------------------|
--5--5--5--5--5--5--3-----5--5--5--5--5--5--3-----|--5--5--5--5--5--5--------3--3--------3--3--5--5--|--7--7--7--7--7--7--5-----7--7--7--7--7--7--5-----|
-----------------------3-----------------------3--|--------------------3--3--------3--3--------------|-----------------------8-----------------------8--|
--------------------------------------------------|--------------------------------------------------|--------------------------------------------------|
--------------------------------------------------|--------------------------------------------------|--------------------------------------------------|


  PM PM PM PM PM PM PM PM PM PM PM PM PM PM PM PM    PM PM PM PM PM PM PM PM PM PM PM PM PM PM PM PM    PM PM PM PM PM PM      TP                                             
  S  S  S  S  S  S  S  S  S  S  S  S  S  S  S  S     S  S  S  S  S  S  S  S  S  S  S  S  S  S  S  S     S  S  S  S  S  S  S  S E  S  S S S S S      H.             S   S  E   
--------------------------------------------------|--------------------------------------------------|-----------------------------------------||----------------------------|
--------------------------------------------------|--------------------------------------------------|-----------------------------------------||----------------------------|
--7--7--7--7--7--7--8--8--8--8--7--7--5--5--------|--5--5--5--5--5--5--3-----5--5--5--5--5--5--3-----|--5--5--5--5--5--5-------3-------3-3-5-5-||*--8~------------10s-12-10--|
--------------------------------------------8--8--|-----------------------3-----------------------3--|--------------------3s-5----3s-5---------||*---------------------------|
--------------------------------------------------|--------------------------------------------------|-----------------------------------------||----------------------------|
--------------------------------------------------|--------------------------------------------------|-----------------------------------------||----------------------------|


   Q.      E  E   E  E   E       Q.       E   E   E  E    E      E   E  E   E   E   E  E   E     H.             S   S  E      H         E   E  E    E      W                  
----------------------------|--------------------------------|--------------------------------|---------------------------|----------------------------|---------------------|
----------------------------|--/11~------10--10s--8--8s--10--|--10s--8--8s--6-----------------|---------------------------|-------------6s--8--8s--10--|--11~----------------|
---L~------8--8s--7--7s--5--|--------------------------------|-----------------10s--8--7S--3--|--8~------------10s-12-10--|---L~-----------------------|---------------------|
----------------------------|--------------------------------|--------------------------------|---------------------------|----------------------------|---------------------|
----------------------------|--------------------------------|--------------------------------|---------------------------|----------------------------|---------------------|
----------------------------|--------------------------------|--------------------------------|---------------------------|----------------------------|---------------------|


   W                                                                                                                                                                                     
---------------------||-------------------|-------------------|-------------------|-------------------||--------------------|-------------------|-------------------|-------------------|
---L-----------------||-------------------|-------------------|-------------------|-------------------||--------------------|-------------------|-------------------|-------------------|
--------------------*||-------------------|-------------------|-------------------|-------------------||*-------------------|-------------------|-------------------|-------------------|
--------------------*||-------------------|-------------------|-------------------|-------------------||*-------------------|-------------------|-------------------|-------------------|
---------------------||-------------------|-------------------|-------------------|-------------------||--------------------|-------------------|-------------------|-------------------|
---------------------||-------------------|-------------------|-------------------|-------------------||--------------------|-------------------|-------------------|-------------------|



                                                                                           Kangen                                                                                             


                                                                                                                                                                                      Log Guns
Gitar 2



             Q    E  E  E  E  E  E     Q    E  E  E  E  E  E     Q    E  E  Q    E  E     Q    E  E  E  E  E  E     Q    E  E  E  E  E  E     Q    E  E  E  E  E  E     W                 
E||-------|-------------------------|-------------------------|------------------------|-------------------------|-------------------------|-------------------------|-------------------|
B||-------|-------------------------|-------------------------|------------------------|-------------------------|-------------------------|-------------------------|-------------------|
G||-------|-------------------------|-------------------------|------------------------|-------------------------|-------------------------|-------------------------|-------------------|
D||-------|-------------------------|-------------------------|--3-------3--3-------3--|-------------------------|-------------------------|-------------------------|-------------------|
A||-------|--1-------1-----1-----1--|--3-------3-----3-----3--|--1-------1--0-------0--|--5-------5-----5-----5--|--1-------1-----1-----1--|--3-------3-----3-----3--|--5----------------|
D||-------|--1-------1-----1-----1--|--3-------3-----3-----3--|------------------------|--5-------5-----5-----5--|--1-------1-----1-----1--|--3-------3-----3-----3--|--5----------------|


  W                     Q    E  E  E  E  E  E     Q    E  E  E  E  E  E     Q    E  E  E  E  E  E     Q    E  E  E  E  E  E     Q    E  E  E  E  E  E     Q    E  E  E  E  E  E   
-------------------||--------------------------|-------------------------|-------------------------|-------------------------|-------------------------|-------------------------|
-------------------||--------------------------|-------------------------|-------------------------|-------------------------|-------------------------|-------------------------|
-------------------||*-------------------------|-------------------------|-------------------------|-------------------------|-------------------------|-------------------------|
-------------------||*--3-------3-----3-----3--|--3-------3-----3-----3--|-------------------------|-------------------------|--5-------5-----5-----5--|--5-------5-----5-----5--|
--L----------------||---1-------1-----1-----1--|--1-------1-----1-----1--|--3-------3-----3-----3--|--3-------3-----3-----3--|--3-------3-----3-----3--|--3-------3-----3-----3--|
--L----------------||--------------------------|-------------------------|--3-------3-----3-----3--|--3-------3-----3-----3--|-------------------------|-------------------------|


                                                                                                    PM    PM    PM    PM       PM    PM    PM    PM       PM    PM    PM    PM     
  Q    E  E  E  E  E  E     Q    E  E  E  E  E  E        W                    W                     E  E  E  E  E  E  E  E     E  E  E  E  E  E  E  E     E  E  E  E  E  E  E  E   
-------------------------|--------------------------||--------------------|--------------------||---------------------------|--------------------------|--------------------------|
-------------------------|--------------------------||--------------------|--------------------||---------------------------|--------------------------|--------------------------|
-------------------------|-------------------------*||--------------------|--------------------||*--------------------------|--------------------------|--------------------------|
--8-------8-----8-----8--|--8-------8-----8-----8--*||--10----------------|---L----------------||*-----1-----1-----1-----1--|-----3-----3-----3-----3--|-----8-----8-----7-----7--|
--6-------6-----6-----6--|--6-------6-----6-----6---||---8----------------|---L----------------||------1-----1-----1-----1--|-----3-----3-----3-----3--|-----8-----8-----8-----8--|
-------------------------|--------------------------||--------------------|--------------------||---1--1--1--1--1--1--1--1--|--3--3--3--3--3--3--3--3--|--8--8--8--8--7--7--7--7--|


  PM    PM    PM    PM       PM    PM    PM    PM       PM    PM    PM    PM       PM    PM    PM    PM       PM    PM    PM    PM         PM    PM    PM    PM     
  E  E  E  E  E  E  E  E     E  E  E  E  E  E  E  E     E  E  E  E  E  E  E  E     E  E  E  E  E  E  E  E     E  E  E  E  E  E  E  E       E  E  E  E  E  E  E  E   
--------------------------|--------------------------|--------------------------|--------------------------|---------------------------||--------------------------|
--------------------------|--------------------------|--------------------------|--------------------------|---------------------------||--------------------------|
--------------------------|--------------------------|--------------------------|--------------------------|--------------------------*||--------------------------|
-----5-----5-----5-----5--|-----1-----1-----1-----1--|-----3-----3-----3-----3--|-----8-----8-----8-----8--|-----8-----8-----8-----8--*||-----1-----1-----1-----1--|
-----5-----5-----5-----5--|-----1-----1-----1-----1--|-----3-----3-----3-----3--|-----8-----8-----8-----8--|-----8-----8-----8-----8---||-----1-----1-----1-----1--|
--5--5--5--5--5--5--5--5--|--1--1--1--1--1--1--1--1--|--3--3--3--3--3--3--3--3--|--8--8--8--8--8--8--8--8--|--8--8--8--8--8--8--8--8---||--1--1--1--1--1--1--1--1--|


  PM    PM    PM    PM                                                                                                                                                       
  E  E  E  E  E  E  E  E     W                   W                     Q    E  E  E  E  E  E     Q    E  E  E  E  E  E     Q    E  E  E  E  E  E     Q    E  E  E  E  E  E   
--------------------------|-------------------|-------------------||--------------------------|-------------------------|-------------------------|-------------------------|
--------------------------|-------------------|-------------------||--------------------------|-------------------------|-------------------------|-------------------------|
--------------------------|-------------------|-------------------||*-------------------------|-------------------------|-------------------------|-------------------------|
-----3-----3-----3-----3--|-------------------|-------------------||*--3-------3-----3-----3--|--3-------3-----3-----3--|-------------------------|-------------------------|
-----3-----3-----3-----3--|--5----------------|--L----------------||---1-------1-----1-----1--|--1-------1-----1-----1--|--3-------3-----3-----3--|--3-------3-----3-----3--|
--3--3--3--3--3--3--3--3--|--5----------------|--L----------------||--------------------------|-------------------------|--3-------3-----3-----3--|--3-------3-----3-----3--|


                                                                                                                                                        PM    PM    PM    PM     
  Q    E  E  E  E  E  E     Q    E  E  E  E  E  E     Q    E  E  E  E  E  E     Q    E  E  E  E  E  E        W                    W                     E  E  E  E  E  E  E  E   
-------------------------|-------------------------|-------------------------|--------------------------||--------------------|--------------------||---------------------------|
-------------------------|-------------------------|-------------------------|--------------------------||--------------------|--------------------||---------------------------|
-------------------------|-------------------------|-------------------------|-------------------------*||--------------------|--------------------||*--------------------------|
--5-------5-----5-----5--|--5-------5-----5-----5--|--8-------8-----8-----8--|--8-------8-----8-----8--*||--10----------------|---L----------------||*-----1-----1-----1-----1--|
--3-------3-----3-----3--|--3-------3-----3-----3--|--6-------6-----6-----6--|--6-------6-----6-----6---||---8----------------|---L----------------||------1-----1-----1-----1--|
-------------------------|-------------------------|-------------------------|--------------------------||--------------------|--------------------||---1--1--1--1--1--1--1--1--|


  PM    PM    PM    PM       PM    PM    PM    PM       PM    PM    PM    PM       PM    PM    PM    PM       PM    PM    PM    PM       PM    PM    PM    PM     
  E  E  E  E  E  E  E  E     E  E  E  E  E  E  E  E     E  E  E  E  E  E  E  E     E  E  E  E  E  E  E  E     E  E  E  E  E  E  E  E     E  E  E  E  E  E  E  E   
--------------------------|--------------------------|--------------------------|--------------------------|--------------------------|--------------------------|
--------------------------|--------------------------|--------------------------|--------------------------|--------------------------|--------------------------|
--------------------------|--------------------------|--------------------------|--------------------------|--------------------------|--------------------------|
-----3-----3-----3-----3--|-----8-----8-----7-----7--|-----5-----5-----5-----5--|-----1-----1-----1-----1--|-----3-----3-----3-----3--|-----8-----8-----8-----8--|
-----3-----3-----3-----3--|-----8-----8-----8-----8--|-----5-----5-----5-----5--|-----1-----1-----1-----1--|-----3-----3-----3-----3--|-----8-----8-----8-----8--|
--3--3--3--3--3--3--3--3--|--8--8--8--8--7--7--7--7--|--5--5--5--5--5--5--5--5--|--1--1--1--1--1--1--1--1--|--3--3--3--3--3--3--3--3--|--8--8--8--8--8--8--8--8--|


  PM    PM    PM    PM         PM    PM    PM    PM       PM    PM    PM    PM                                                                                                 
  E  E  E  E  E  E  E  E       E  E  E  E  E  E  E  E     E  E  E  E  E  E  E  E     W                   W                   Q    E  E  E  E  E  E     Q    E  E  E  E  E  E   
---------------------------||--------------------------|--------------------------|-------------------|-------------------|-------------------------|-------------------------|
---------------------------||--------------------------|--------------------------|-------------------|-------------------|-------------------------|-------------------------|
--------------------------*||--------------------------|--------------------------|-------------------|-------------------|-------------------------|-------------------------|
-----8-----8-----8-----8--*||-----1-----1-----1-----1--|-----3-----3-----3-----3--|-------------------|-------------------|--0-------0-----0-----0--|--0-------0-----0-----0--|
-----8-----8-----8-----8---||-----1-----1-----1-----1--|-----3-----3-----3-----3--|--5----------------|--L----------------|--0-------0-----0-----0--|--0-------0-----0-----0--|
--8--8--8--8--8--8--8--8---||--1--1--1--1--1--1--1--1--|--3--3--3--3--3--3--3--3--|--5----------------|--L----------------|--0-------0-----0-----0--|--0-------0-----0-----0--|


  Q    E  E  E  E  E  E     Q    E  E  E  E  E  E     Q    E  E  E  E  E  E     Q    E  E  E  E  E  E     Q    E  E  E  E  E  E     Q    E  E  E  E  E  E     Q    E  E  E  E  E  E   
-------------------------|-------------------------|-------------------------|-------------------------|-------------------------|-------------------------|-------------------------|
-------------------------|-------------------------|-------------------------|-------------------------|-------------------------|-------------------------|-------------------------|
-------------------------|-------------------------|-------------------------|-------------------------|-------------------------|-------------------------|-------------------------|
--5-------5-----5-----5--|--5-------5-----5-----5--|--0-------0-----0-----0--|--0-------0-----0-----0--|--5-------5-----5-----5--|--5-------5-----5-----5--|--3-------3-----3-----3--|
--5-------5-----5-----5--|--5-------5-----5-----5--|--0-------0-----0-----0--|--0-------0-----0-----0--|--5-------5-----5-----5--|--5-------5-----5-----5--|--1-------1-----1-----1--|
--5-------5-----5-----5--|--5-------5-----5-----5--|--0-------0-----0-----0--|--0-------0-----0-----0--|--5-------5-----5-----5--|--5-------5-----5-----5--|-------------------------|


  Q    E  E  E  E  E  E     Q    E  E  E  E  E  E     Q    E  E  E  E  E  E     Q    E  E  E  E  E  E     Q    E  E  E  E  E  E     Q    E  E  E  E  E  E     Q    E  E  E  E  E  E   
-------------------------|-------------------------|-------------------------|-------------------------|-------------------------|-------------------------|-------------------------|
-------------------------|-------------------------|-------------------------|-------------------------|-------------------------|-------------------------|-------------------------|
-------------------------|-------------------------|-------------------------|-------------------------|-------------------------|-------------------------|-------------------------|
--3-------3-----3-----3--|-------------------------|-------------------------|--3-------3-----3-----3--|--3-------3-----3-----3--|-------------------------|-------------------------|
--1-------1-----1-----1--|--3-------3-----3-----3--|--3-------3-----3-----3--|--1-------1-----1-----1--|--1-------1-----1-----1--|--3-------3-----3-----3--|--3-------3-----3-----3--|
-------------------------|--3-------3-----3-----3--|--3-------3-----3-----3--|-------------------------|-------------------------|--3-------3-----3-----3--|--3-------3-----3-----3--|


    PM    PM    PM    PM       PM    PM    PM    PM       PM    PM    PM    PM       PM    PM    PM    PM       PM    PM    PM    PM       PM    PM    PM    PM     
    E  E  E  E  E  E  E  E     E  E  E  E  E  E  E  E     E  E  E  E  E  E  E  E     E  E  E  E  E  E  E  E     E  E  E  E  E  E  E  E     E  E  E  E  E  E  E  E   
|---------------------------|--------------------------|--------------------------|--------------------------|--------------------------|--------------------------|
|---------------------------|--------------------------|--------------------------|--------------------------|--------------------------|--------------------------|
|*--------------------------|--------------------------|--------------------------|--------------------------|--------------------------|--------------------------|
|*-----1-----1-----1-----1--|-----3-----3-----3-----3--|-----8-----8-----7-----7--|-----5-----5-----5-----5--|-----1-----1-----1-----1--|-----3-----3-----3-----3--|
|------1-----1-----1-----1--|-----3-----3-----3-----3--|-----8-----8-----8-----8--|-----5-----5-----5-----5--|-----1-----1-----1-----1--|-----3-----3-----3-----3--|
|---1--1--1--1--1--1--1--1--|--3--3--3--3--3--3--3--3--|--8--8--8--8--7--7--7--7--|--5--5--5--5--5--5--5--5--|--1--1--1--1--1--1--1--1--|--3--3--3--3--3--3--3--3--|


  PM    PM    PM    PM       PM    PM    PM    PM         PM    PM    PM    PM       PM    PM    PM    PM       PM    PM    PM    PM       PM    PM    PM    PM     
  E  E  E  E  E  E  E  E     E  E  E  E  E  E  E  E       E  E  E  E  E  E  E  E     E  E  E  E  E  E  E  E     E  E  E  E  E  E  E  E     E  E  E  E  E  E  E  E   
--------------------------|---------------------------||--------------------------|--------------------------|--------------------------|--------------------------|
--------------------------|---------------------------||--------------------------|--------------------------|--------------------------|--------------------------|
--------------------------|--------------------------*||--------------------------|--------------------------|--------------------------|--------------------------|
-----8-----8-----8-----8--|-----8-----8-----8-----8--*||-----1-----1-----1-----1--|-----3-----3-----3-----3--|-----8-----8-----8-----8--|-----8-----8-----8-----8--|
-----8-----8-----8-----8--|-----8-----8-----8-----8---||-----1-----1-----1-----1--|-----3-----3-----3-----3--|-----8-----8-----8-----8--|-----8-----8-----8-----8--|
--8--8--8--8--8--8--8--8--|--8--8--8--8--8--8--8--8---||--1--1--1--1--1--1--1--1--|--3--3--3--3--3--3--3--3--|--8--8--8--8--8--8--8--8--|--8--8--8--8--8--8--8--8--|


    PM    PM    PM    PM       PM    PM    PM    PM       PM    PM    PM    PM       PM    PM    PM    PM       PM    PM    PM    PM       PM    PM    PM    PM     
    E  E  E  E  E  E  E  E     E  E  E  E  E  E  E  E     E  E  E  E  E  E  E  E     E  E  E  E  E  E  E  E     E  E  E  E  E  E  E  E     E  E  E  E  E  E  E  E   
|---------------------------|--------------------------|--------------------------|--------------------------|--------------------------|--------------------------|
|---------------------------|--------------------------|--------------------------|--------------------------|--------------------------|--------------------------|
|*--------------------------|--------------------------|--------------------------|--------------------------|--------------------------|--------------------------|
|*-----1-----1-----1-----1--|-----3-----3-----3-----3--|-----8-----8-----7-----7--|-----5-----5-----5-----5--|-----1-----1-----1-----1--|-----3-----3-----3-----3--|
|------1-----1-----1-----1--|-----3-----3-----3-----3--|-----8-----8-----8-----8--|-----5-----5-----5-----5--|-----1-----1-----1-----1--|-----3-----3-----3-----3--|
|---1--1--1--1--1--1--1--1--|--3--3--3--3--3--3--3--3--|--8--8--8--8--7--7--7--7--|--5--5--5--5--5--5--5--5--|--1--1--1--1--1--1--1--1--|--3--3--3--3--3--3--3--3--|


  PM    PM    PM    PM       PM    PM    PM    PM         PM    PM    PM    PM       PM    PM    PM    PM                                           ^ v                      
  E  E  E  E  E  E  E  E     E  E  E  E  E  E  E  E       E  E  E  E  E  E  E  E     E  E  E  E  E  E  E  E     W                   H.           E  S S    W                 
--------------------------|---------------------------||--------------------------|--------------------------|-------------------|----------------------|-------------------|
--------------------------|---------------------------||--------------------------|--------------------------|-------------------|----------------------|-------------------|
--------------------------|--------------------------*||--------------------------|--------------------------|-------------------|----------------------|-------------------|
-----8-----8-----8-----8--|-----8-----8-----8-----8--*||-----1-----1-----1-----1--|-----3-----3-----3-----3--|-------------------|----------------------|-------------------|
-----8-----8-----8-----8--|-----8-----8-----8-----8---||-----1-----1-----1-----1--|-----3-----3-----3-----3--|--5----------------|--L------------L--5-5-|--5----------------|
--8--8--8--8--8--8--8--8--|--8--8--8--8--8--8--8--8---||--1--1--1--1--1--1--1--1--|--3--3--3--3--3--3--3--3--|--5----------------|--L------------L--5-5-|--5----------------|


  W                   W                  
-------------------|-------------------||
-------------------|-------------------||
-------------------|-------------------||
-------------------|-------------------||
--L----------------|--L----------------||
--L----------------|--L----------------||




www.yunanmr.co.nr
 

Chord Gitar Terkait