Menu
Chord Kuta Rock City [Tab] By Superman Is Dead
Chord Lagu Kuta Rock City [Tab]
Kunci Gitar Kuta Rock City [tab]
Solo I :

e|----------------------------------------------------------------------
B|----------------------------------------------------------------------
G|-11--13--9---13--14--13--11-------------------------------------------
D|-----------------------------9-9-9-9-9-9-9-9-9-9----------------------
A|----------------------------------------------------------------------
E|----------------------------------------------------------------------

e|----------------------------------------------------------------------
B|----------------------------------------------------------------------
G|-11--13--9---13--14--13--14--16-16-16-16-16-16-16-16-16-16------------
D|----------------------------------------------------------------------
A|----------------------------------------------------------------------
E|----------------------------------------------------------------------

e|----------------------------------------------------------------------
B|----------------------------------------------------------------------
G|-11--13--9---13--14--13--11-------------------------------------------
D|-----------------------------9-9-9-9-9-9-9-9-9-9----------------------
A|----------------------------------------------------------------------
E|----------------------------------------------------------------------

e|----------------------------------------------------------------------
B|----------------------------------------------------------------------
G|-11--13--9---13--14--13--14--16--14--13--14--13--14--16---------------
D|----------------------------------------------------------------------
A|----------------------------------------------------------------------
E|----------------------------------------------------------------------

e|----------------------------------------------------------------------
B|---------------------------------------------14--14--16--17--12-------
G|-14--13--14--13--14--16--14--13--14--13--14---------------------------
D|----------------------------------------------------------------------
A|----------------------------------------------------------------------
E|----------------------------------------------------------------------

e|----------------------------------------------------------------------
B|----------------------------------------------------------------------
G|-13--14--16--14--13--11--14-------------------------------------------
D|----------------------------------------------------------------------
A|----------------------------------------------------------------------
E|----------------------------------------------------------------------


Solo II :

e|----------------------------------------------------------------------
B|----------------------------------------------------------------------
G|-11--13--9---13--14--13--11-------------------------------------------
D|-----------------------------9-9-9-9-9-9-9-9-9-9----------------------
A|----------------------------------------------------------------------
E|----------------------------------------------------------------------

e|----------------------------------------------------------------------
B|----------------------------------------------------------------------
G|-11--13--9---13--14--13--14--16-16-16-16-16-16-16-16-16-16------------
D|----------------------------------------------------------------------
A|----------------------------------------------------------------------
E|----------------------------------------------------------------------

e|----------------------------------------------------------------------
B|----------------------------------------------------------------------
G|-11--13--9---13--14--13--11-------------------------------------------
D|-----------------------------9-9-9-9-9-9-9-9-9-9----------------------
A|----------------------------------------------------------------------
E|----------------------------------------------------------------------

e|----------------------------------------------------------------------
B|----------------------------------------------------------------------
G|-11--13--9---13--14--13--14--16--14--13--14--13--14--16---------------
D|----------------------------------------------------------------------
A|----------------------------------------------------------------------
E|----------------------------------------------------------------------

e|----------------------------------------------------------------------
B|----------------------------------------------------------------------
G|-14--13--14--13--14--16--14--13--14--13--14---------------------------
D|---------------------------------------------14~----------------------
A|----------------------------------------------------------------------
E|----------------------------------------------------------------------

 

Chord Gitar Terkait