Menu
Chord Lupakan Aku [Interlude Tab] By Kerispatih
Chord Lagu Lupakan Aku [Interlude Tab]
Kunci Gitar Lupakan Aku [interlude Tab]
Interlude
|------------------------------------------------------------|
|--------------------------------8/12/15-13--15-17-10--------|
|---12~----------9-10-10--9~---------------------------------|
|---------10h12----------------------------------------------|
|------------------------------------------------------------|
|------------------------------------------------------------|

|-------15-(13-12-------13-------13/15-13~-----12\10---------|
|----10-----------15)------8~------------------------13~-----|
|------------------------------------------------------------|
|------------------------------------------------------------|
|------------------------------------------------------------|
|------------------------------------------------------------|

|--------------------------------------|
|----12h13/15-15/17--------------------|
|-------------------12-12--------------|
|--------------------------------------|
|--------------------------------------|
|--------------------------------------|

|--------------------------------------|
|----10h12-13-15-15/17-----------------|
|----------------------12-12-----------|
|--------------------------------------|
|--------------------------------------|
|--------------------------------------|

|--------------------------------------|
|----15/17--12-12--12/15-13------------|
|--------------------------------------|
|--------------------------------------|
|--------------------------------------|
|--------------------------------------|

|--------------------------------------|
|----------------12-13-13--------------|
|----------12h14-----------------------|
|----12h14-----------------------------|
|--------------------------------------|
|--------------------------------------|

|--------------------------------------|
|----------------12-13-15--------------|
|----------12h14-----------------------|
|----12h14-----------------------------|
|--------------------------------------|
|--------------------------------------|

|---------------------------------------------------------------------------|
|----------------12-13-17^r----18-17-15-------------------------------------|
|----------12h14------------------------17--17-16-14-12---------------------|
|----12h14------------------------------------------------12p10-12p10-13~---|
|---------------------------------------------------------------------------|
|---------------------------------------------------------------------------|
 

Chord Gitar Terkait