Menu
Chord Main Serong [solo Tab] By The Changcuters
Chord Lagu Main Serong [solo Tab]
Kunci Gitar Main Serong [solo Tab]
solo;
|--7-6-5-7-6-5-5--5--5--)             2x
|--------------6-----6--)             2x
|-----------------------
|-----------------------
|-----------------------
|-----------------------

|--9-8-7-9-8-7-7--7--7--)            
|--------------8-----8--)             
|-----------------------
|-----------------------
|-----------------------
|-----------------------

|--7-6-5-7-6-5-5--5--5--)
|--------------6-----6--)
|-----------------------
|-----------------------
|-----------------------
|-----------------------

|--9-8-7---7-6-5--
|-----------------
|-----------------
|-----------------
|-----------------
|-----------------

Lbh cpt sedikit daripada di atz
|---7-6-5--7-6-5-7-6-5-7-6-5-6-5-5-
|--------------------------------6-
|----------------------------------
|----------------------------------
|----------------------------------
|----------------------------------

maaf klo solo ny agk meleset ya......

bambang 

cbamz@yahoo.co.id
|
 

Chord Gitar Terkait