Menu

Chord Muse

Chord New Born [Intro Tab] By Muse
Chord Lagu New Born [Intro Tab]
Kunci Gitar New Born [intro Tab]

e|------7-------7----------7-------7---|
B|----8---8---8---8------7---7---7---7-|
G|--9-------9----------8-------8-------| X2
D|-------------------------------------|
A|-------------------------------------|
D|-------------------------------------|

e|------7-------7----------8-------8---|
B|----8---8---8---8------8---8---8---8-|
G|--9-------9----------9-------9-------|
D|-------------------------------------|
A|-------------------------------------|
D|-------------------------------------|

e|------7-------7----------7-------7---|
B|----8---8---8---8------7---7---7---7-|
G|--7-------7----------8-------8-------|
D|-------------------------------------|
A|-------------------------------------|
D|-------------------------------------|

Diulang sampe 6x klo gak salah...
(ikut lagunya aja lah..)

Main Riff
e|-----------------------------------------------------------|
B|-----------------------------------------------------------|
G|-----------------------------------------------------------|
D|-----------------------------------------------------------|
A|-----------------------------------------------------------|
D|--2-2-2-5-2-5-6-7--7-7-10-7-10-11-0--0-0-3-3-4-4-5--5-5-9--|


e|--0----|-------|-------|------|
B|--1----|--2----|--0----|-4----|
G|--0----|--0----|--0----|-4----|
D|--2----|--2----|--2----|-4----|
A|--3----|--1----|--2----|-2----|
D|-------|-------|-------|------|


 

Chord Gitar Terkait