Menu
Chord Positive Thinking (tab) By Kobe
Chord Lagu Positive Thinking (tab)
Kunci Gitar Positive Thinking (tab)
tuning drop c#

Artist: Kobe
Song: Positive Thinking
Album: Positive Thinking
Tabbed: [email protected]


verse:
     
       ******    ******    ******    ******
D#|-----------------------------------------| 
A#|-----------------------------------------|  
F#|-----------------------------------------|   
C#|-7--777777-5--555555-3--333333-5--555555-|   
G#|-5--555555-3--333333-3--333333-5--555555-|  
C#|-----------------------------------------| 
 

pre-chorus :

D#|-------------------| 
A#|-------------------|  
F#|-------------------|   
C#|-0-0-320-2-023-035-|   
G#|-0-0-320-2-023-035-|  
C#|-0-0-320-2-023-035-| 


chorus :
          **   **   **          **   **   **
D#|---------------------------------------------|
A#|---------------------------------------------|
F#|---------------------------------------------|
C#|-0--0--00-0-00-0-00-0--3--3--33-3-33-3-33-3--|
G#|-0--0--00-0-00-0-00-0--1--1--11-1-11-1-11-1--|
C#|-0--0--00-0-00-0-00-0------------------------|


          **   **   **          **   **   **
D#|---------------------------------------------|
A#|---------------------------------------------|
F#|---------------------------------------------|
C#|-0--0--00-0-00-0-00-0--3--3--33-3-33-3-33-3--|
G#|-0--0--00-0-00-0-00-0--1--1--11-1-11-1-11-1--|
C#|-0--0--00-0-00-0-00-0------------------------|


D#|-------------------|
A#|-------------------|
F#|-------------------|
C#|-5-5-5-5--7-7-7-7--|
G#|-5-5-5-5--7-7-7-7--|
C#|-5-5-5-5--7-7-7-7--|


          **   **   **          **   **   **
D#|---------------------------------------------|
A#|---------------------------------------------|
F#|---------------------------------------------|
C#|-0--0--00-0-00-0-00-0--3--3--33-3-33-3-33-3--|
G#|-0--0--00-0-00-0-00-0--1--1--11-1-11-1-11-1--|
C#|-0--0--00-0-00-0-00-0------------------------|

          **   **   **          **   **   **
D#|---------------------------------------------|
A#|---------------------------------------------|
F#|---------------------------------------------|
C#|-0--0--00-0-00-0-00-0--3--3--33-3-33-3-33-3--|
G#|-0--0--00-0-00-0-00-0--1--1--11-1-11-1-11-1--|
C#|-0--0--00-0-00-0-00-0------------------------|

          
D#|-------------------|
A#|-------------------|
F#|-------------------|
C#|-5-5-5-5--7-7-7-7--|
G#|-5-5-5-5--7-7-7-7--|
C#|-5-5-5-5--7-7-7-7--|


Breakdown
       
D#|----------------------------------------|
A#|----------------------------------------|
F#|----------------------------------------|
C#|-0-0-323-0-0-323-0-0-323-323-5555-7777--|
G#|-0-0-323-0-0-323-0-0-323-323-5555-7777--|
C#|-0-0-323-0-0-323-0-0-323-323-5555-7777--|


playlist:
1. verse 4x
2. pre-chorus 4x
3. chorus
4. verse 4x
5. pre chorus 4x
6. chorus
7. (no guitar. only drum and dj)
8. breakdown 2x
9. (no guitar. just bass)
10.Verse 2x
11.pre-chorus 4x
12.chorus 2x

maaf kalo ada yang kurang sempurna ^o^
 

Chord Gitar Terkait