Menu
Chord SKSJ(Intro TaB) By Five Minutes
Chord Lagu SKSJ(Intro TaB)
Kunci Gitar Sksj(intro Tab)
intro:Bm D A E

e|------------------------------------------------|
B|------------------------------------------------|
G|4h6----4-6-6-4-6--------------------------------|
D|---5-8~---------7-6-7-9~------------------------|
A|------------------------------------------------|
E|------------------------------------------------|

e|------------------------------------------------|
B|------------------------------------------------|
G|4h6---------------------------------------------|
D|---5-8~---------7-7h9-7-6~----------------------|
A|-------7h9-7-5-7--------------------------------|
E|------------------------------------------------|

cReated by hezZa
 

Chord Gitar Terkait