Menu
Chord Soul Sister [tab] By The Sigit
Chord Lagu Soul Sister [tab]
Kunci Gitar Soul Sister [tab]
INTRO
E|-----------5------------5-----|
B|-----------5------------5-----|
G|---5h7p5----------------------|
D|-----------------5h7----------|
A|------------------------------|
E|------------------------------|
         PLAY THIS PART 5 TIMES

E|-----------------------------------------------------|
B|-----------------------------------------------------|
G|-----------------------------------------------------|
D|-----------------------------------------------------|
A|----5S777777---10------------------------------------|
e|----3S555555---8-------------------------------------|
       PLAY THESE A COUPLE OF TIMES,THEN....

E|-----------------------------------------------------|
B|----3h5p3--------------------------------------------|
G|------------5-7-5---------------5--------------------|
D|-------------------7-5-7-7-5-7-----------------------|
A|-----------------------------------------------------|
E|-----------------------------------------------------|
       play these a couple of times too 

and this part came in the middle of the song
E|-----------------------------------------------------|
B|-----8h10p8------------------------------------------|
G|-------------10-12-10--------------------------------|
D|-----------------------12-10-12-12-10-12-10----------|
A|-----------------------------------------------------|
E|-----------------------------------------------------|


 

Chord Gitar Terkait