Menu

Chord Hijau Daun

Chord Suara [solo Tab By Hijau Daun
Chord Lagu Suara [solo Tab
Kunci Gitar Suara [solo Tab
Suara(solo tab)

guitar by:[email protected]


e|---------------------------------------------------------------|
B|-----------------------------------------------10--------------|
G|------------------------------------7--9-7-9/11---11-9-9h11-7~-|
D|-----12-11-11-9-9-7-7-7~--7h9-5--7-9---------------------------|
A|10-12----------------------------------------------------------|
E|---------------------------------------------------------------|


e|--------------10-10-9-9--------------------------------|
B|8-7-8-7h8-7-8--7--7-7-7-10-10---12-14-15--14-15-17-14~-|
G|-------------------------------------------------------|
D|-------------------------------------------------------|
A|-------------------------------------------------------|
E|-------------------------------------------------------|

Created by Hezza
Please Comment in my Fs:[email protected]
 

Chord Gitar Terkait