Menu
Chord Tak Bisakah (Tab) By Peterpan
Chord Lagu Tak Bisakah (Tab)
Kunci Gitar Tak Bisakah (tab)
E|--5/7--7--5--3------------------------------------
B|----------------5--5--5--3/5--5--3--5/7--7--5--3--
G|--------------------------------------------------
D|--------------------------------------------------
A|--------------------------------------------------
E|--------------------------------------------------

E|--5h7--7--12--10--7--7--7--
B|---------------------------
G|---------------------------
D|---------------------------
A|---------------------------
E|---------------------------

E|--7--5/7--7--3--3--3--2--3--2-----
B|-------------------------------3--
G|----------------------------------
D|----------------------------------
A|----------------------------------
E|----------------------------------

Ni tab udh gw jamin bener...tpi klo slah maklumin aj yee..
by : GibQar
 

Chord Gitar Terkait