Menu
Chord Terbakar Cemburu [intro Tab] By Padi
Chord Lagu Terbakar Cemburu [intro Tab]
Kunci Gitar Terbakar Cemburu [intro Tab]
|----------------------------------------|
|----6-6/13-11-10-8-6-3-10-8-10b---------|
|-1/5------------------------------------|
|----------------------------------------|
|----------------------------------------|
|----------------------------------------|


|----------------------------------------|
|----6-8-8/10-8-6\5-6-8-6\5/6------------|
|-1/5------------------------------------|
|----------------------------------------|
|----------------------------------------|
|----------------------------------------|


|----------------------------------------|
|----6-6/13-11-10-8-6-3-10-8-10b---------|
|-1/5------------------------------------|
|----------------------------------------|
|----------------------------------------|
|----------------------------------------|


|----------------------------------------|
|----6-8-8/10-8-----------6/8-6/8--------|
|-1/5-----------7-5-3-5-7----------------|
|----------------------------------------|
|----------------------------------------|
|----------------------------------------|
 

Chord Gitar Terkait