Menu
Chord Tersesal (Guitar Tabs) By J Rocks
Loading...
Chord Lagu Tersesal (Guitar Tabs)
Kunci Gitar Tersesal (guitar Tabs)
Loading...
                                                                                          Tersesal                                                                                            


                                                                                                                                                                                       J-Rocks
Gitar 1



E||-------|-------|-------|-------|-------|-------|-------|-------|-------|-------|-------|-------|-------|-------|-------|-------|-------|-------|-------|-------|-------|-------|-------|
B||-------|-------|-------|-------|-------|-------|-------|-------|-------|-------|-------|-------|-------|-------|-------|-------|-------|-------|-------|-------|-------|-------|-------|
G||-------|-------|-------|-------|-------|-------|-------|-------|-------|-------|-------|-------|-------|-------|-------|-------|-------|-------|-------|-------|-------|-------|-------|
D||-------|-------|-------|-------|-------|-------|-------|-------|-------|-------|-------|-------|-------|-------|-------|-------|-------|-------|-------|-------|-------|-------|-------|
A||-------|-------|-------|-------|-------|-------|-------|-------|-------|-------|-------|-------|-------|-------|-------|-------|-------|-------|-------|-------|-------|-------|-------|
E||-------|-------|-------|-------|-------|-------|-------|-------|-------|-------|-------|-------|-------|-------|-------|-------|-------|-------|-------|-------|-------|-------|-------|


-------|-------|-------|-------|-------|-------|-------|-------|-------|-------|-------|-------|-------|-------|-------|-------|-------|-------|-------|-------|-------|-------|-------|
-------|-------|-------|-------|-------|-------|-------|-------|-------|-------|-------|-------|-------|-------|-------|-------|-------|-------|-------|-------|-------|-------|-------|
-------|-------|-------|-------|-------|-------|-------|-------|-------|-------|-------|-------|-------|-------|-------|-------|-------|-------|-------|-------|-------|-------|-------|
-------|-------|-------|-------|-------|-------|-------|-------|-------|-------|-------|-------|-------|-------|-------|-------|-------|-------|-------|-------|-------|-------|-------|
-------|-------|-------|-------|-------|-------|-------|-------|-------|-------|-------|-------|-------|-------|-------|-------|-------|-------|-------|-------|-------|-------|-------|
-------|-------|-------|-------|-------|-------|-------|-------|-------|-------|-------|-------|-------|-------|-------|-------|-------|-------|-------|-------|-------|-------|-------|


                                                                                                          S S S S Q    E    E     S S S S Q    E    E     S S S S Q    E    E   
-------|-------|-------|-------|-------|-------|-------|-------|-------|-------|-------|-------|-------|-----------------------|-----------------------|-----------------------|
-------|-------|-------|-------|-------|-------|-------|-------|-------|-------|-------|-------|-------|-----------------------|-----------------------|-----------------------|
-------|-------|-------|-------|-------|-------|-------|-------|-------|-------|-------|-------|-------|-----------------------|-----------------------|-----------------------|
-------|-------|-------|-------|-------|-------|-------|-------|-------|-------|-------|-------|-------|----------9----9s--10--|----------9----9s--10--|----------9----9s--10--|
-------|-------|-------|-------|-------|-------|-------|-------|-------|-------|-------|-------|-------|--0-0-0----------------|-----------------------|-----------------------|
-------|-------|-------|-------|-------|-------|-------|-------|-------|-------|-------|-------|-------|-----------------------|--5-5-5----------------|--5-5-5----------------|


  E  Q    E.  S E     S S S S Q    E    E     S S S S Q    E    E     S S S S Q    E    E     E  Q    E.  S E     S S S S Q    E   E     S S S S Q    E   E     S S S S Q    E   E   
-------------------|-----------------------|-----------------------|-----------------------|-------------------|----------------------|----------------------|----------------------|
-------------------|-----------------------|-----------------------|-----------------------|-------------------|----------------------|----------------------|----------------------|
-------------------|-----------------------|-----------------------|-----------------------|-------------------|----------7----7s--9--|----------7----7s--9--|----------7----7s--9--|
--3--3----3-----3--|----------9----9s--10--|----------9----9s--10--|----------9----9s--10--|--3--3----3-----3--|----------------------|----------------------|----------------------|
--3--3----3-----3--|--0-0-0----------------|-----------------------|-----------------------|--3--3----3-----3--|----------------------|----------------------|----------------------|
--1--1----1-----1--|-----------------------|--5-5-5----------------|--5-5-5----------------|--1--1----1-----1--|--5-5-5---------------|--5-5-5---------------|--5-5-5---------------|


  E  Q    E.  S E     S S S S Q    E   E     S S S S Q    E   E     S S S S Q    E   E     E  Q    E.  S E      T  T  T  T  E    Q     T  T  T  T  T  T  T  T  E    E   
-------------------|----------------------|----------------------|----------------------|-------------------|-------------------------------------------------17s--20--|
-------------------|----------------------|----------------------|----------------------|-------------------|--------------15s--17-------------------------17----------|
-------------------|----------7----7s--9--|----------7----7s--9--|----------7----7s--9--|-------------------|-----------14------------14----------------17-------------|
--3--3----3-----3--|----------------------|----------------------|----------------------|--3--3----3-----3--|--------14------------------14----------19----------------|
--3--3----3-----3--|----------------------|----------------------|----------------------|--3--3----3-----3--|-----15------------------------15----19-------------------|
--1--1----1-----1--|--5-5-5---------------|--5-5-5---------------|--5-5-5---------------|--1--1----1-----1--|--17------------------------------17----------------------|


   S  S  S  S  S  H          E.      W                     W                   E  E  E  E  E  E  E  E     E  E  E  E  E  E  E  E     E  E  E  E  E  E  E  E     E  E  E  E  E  E  E  E   
--20-17--------------------------|---------------------|--------------------|--------------------------|--------------------------|--------------------------|--------------------------|
--------20-17----20b---------L---|---L~----------------|---L----------------|--------------------------|--------------------------|--------------------------|--------------------------|
--------------17-----------------|---------------------|--------------------|--------------------------|--------------------------|--7--7--7--7--7--7--7--7--|--7--7--7--7--7--7--7--7--|
---------------------------------|---------------------|--------------------|--7--7--7--7--7--7--7--7--|--7--7--7--7--7--7--7--7--|--7--7--7--7--7--7--7--7--|--7--7--7--7--7--7--7--7--|
---------------------------------|---------------------|--------------------|--7--7--7--7--7--7--7--7--|--7--7--7--7--7--7--7--7--|--5--5--5--5--5--5--5--5--|--5--5--5--5--5--5--5--5--|
---------------------------------|---------------------|--------------------|--5--5--5--5--5--5--5--5--|--5--5--5--5--5--5--5--5--|--------------------------|--------------------------|


  E  E  E  E  E  E  E  E     E  E  E  E  E  E  E  E     E  E  E  E  E  E  E  E     E  E  E  E  E  E  E  E     E  E  E  E  E  E  E  E     E  E  E  E  E  E  E  E     E  E  E  E  E  E  E  E   
--------------------------|--------------------------|--------------------------|--------------------------|--------------------------|--------------------------|--------------------------|
--------------------------|--------------------------|--------------------------|--------------------------|--------------------------|--------------------------|--------------------------|
--------------------------|--------------------------|--2--2--2--2--2--2--2--2--|--------------------------|--------------------------|--------------------------|--4--4--4--4--4--4--4--4--|
--6--6--6--6--6--6--6--6--|--2--2--2--2--2--2--2--2--|--2--2--2--2--2--2--2--2--|--5--5--5--5--5--5--5--5--|--3--3--3--3--3--3--3--3--|--3--3--3--3--3--3--3--3--|--4--4--4--4--4--4--4--4--|
--6--6--6--6--6--6--6--6--|--2--2--2--2--2--2--2--2--|--0--0--0--0--0--0--0--0--|--5--5--5--5--5--5--5--5--|--3--3--3--3--3--3--3--3--|--3--3--3--3--3--3--3--3--|--2--2--2--2--2--2--2--2--|
--4--4--4--4--4--4--4--4--|--0--0--0--0--0--0--0--0--|--------------------------|--3--3--3--3--3--3--3--3--|--1--1--1--1--1--1--1--1--|--1--1--1--1--1--1--1--1--|--------------------------|


  E  E  E  E  E  E  E  E     E  E  E  E  E  E  E  E     E  E  E  E  E  E  E  E     E  E  E  E  E  E  E  E     E  E  E  E  E  E  E  E     E  E  E  E  E  E  E  E     E  E  E  E  E  E  E  E   
--------------------------|--------------------------|--------------------------|--------------------------|--------------------------|--------------------------|--------------------------|
--------------------------|--------------------------|--------------------------|--------------------------|--------------------------|--------------------------|--------------------------|
--4--4--4--4--4--4--4--4--|--4--4--4--4--4--4--4--4--|--4--4--4--4--4--4--4--4--|--------------------------|--------------------------|--------------------------|--------------------------|
--4--4--4--4--4--4--4--4--|--4--4--4--4--4--4--4--4--|--4--4--4--4--4--4--4--4--|--6--6--6--6--6--6--6--6--|--2--2--2--2--2--2--2--2--|--7--7--7--7--7--7--7--7--|--7--7--7--7--7--7--7--7--|
--2--2--2--2--2--2--2--2--|--2--2--2--2--2--2--2--2--|--2--2--2--2--2--2--2--2--|--6--6--6--6--6--6--6--6--|--2--2--2--2--2--2--2--2--|--7--7--7--7--7--7--7--7--|--7--7--7--7--7--7--7--7--|
--------------------------|--------------------------|--------------------------|--4--4--4--4--4--4--4--4--|--0--0--0--0--0--0--0--0--|--5--5--5--5--5--5--5--5--|--5--5--5--5--5--5--5--5--|


  E  E  E  E  E  E  E  E     E  E  E  E  E  E  E  E     E  E  E  E  E  E  E  E     E  E  E  E  E  E  E  E     E  E  E  E  E  E  E  E     E  E  E  E  E  E  E  E     E  E  E  E  E  E  E  E   
--------------------------|--------------------------|--------------------------|--------------------------|--------------------------|--------------------------|--------------------------|
--------------------------|--------------------------|--------------------------|--------------------------|--------------------------|--------------------------|--------------------------|
--7--7--7--7--7--7--7--7--|--7--7--7--7--7--7--7--7--|--------------------------|--------------------------|--2--2--2--2--2--2--2--2--|--------------------------|--------------------------|
--7--7--7--7--7--7--7--7--|--7--7--7--7--7--7--7--7--|--6--6--6--6--6--6--6--6--|--2--2--2--2--2--2--2--2--|--2--2--2--2--2--2--2--2--|--5--5--5--5--5--5--5--5--|--3--3--3--3--3--3--3--3--|
--5--5--5--5--5--5--5--5--|--5--5--5--5--5--5--5--5--|--6--6--6--6--6--6--6--6--|--2--2--2--2--2--2--2--2--|--0--0--0--0--0--0--0--0--|--5--5--5--5--5--5--5--5--|--3--3--3--3--3--3--3--3--|
--------------------------|--------------------------|--4--4--4--4--4--4--4--4--|--0--0--0--0--0--0--0--0--|--------------------------|--3--3--3--3--3--3--3--3--|--1--1--1--1--1--1--1--1--|


  E  E  E  E  E  E  E  E     E  E  E  E  E  E  E  E     E  E  E  E  E  E  E  E     E  E  E  E  E  E  E  E     E  E  E  E  E  E  E  E     E  E  E  E  E  E  E  E     Q    H.            
--------------------------|--------------------------|--------------------------|--------------------------|--------------------------|--------------------------|--------------------|
--------------------------|--------------------------|--------------------------|--------------------------|--------------------------|--------------------------|--------------------|
--------------------------|--4--4--4--4--4--4--4--4--|--4--4--4--4--4--4--4--4--|--4--4--4--4--4--4--4--4--|--4--4--4--4--4--4--4--4--|--------------------------|--------------------|
--3--3--3--3--3--3--3--3--|--4--4--4--4--4--4--4--4--|--4--4--4--4--4--4--4--4--|--4--4--4--4--4--4--4--4--|--4--4--4--4--4--4--4--4--|--6--6--6--6--6--6--6--6--|--6-----------------|
--3--3--3--3--3--3--3--3--|--2--2--2--2--2--2--2--2--|--2--2--2--2--2--2--2--2--|--2--2--2--2--2--2--2--2--|--2--2--2--2--2--2--2--2--|--6--6--6--6--6--6--6--6--|--6-----------------|
--1--1--1--1--1--1--1--1--|--------------------------|--------------------------|--------------------------|--------------------------|--4--4--4--4--4--4--4--4--|--4-----------------|


  H.           H.              W.                  W.                  W.                  H.           H.              W.                  W.                  W                E  Q.      
----------------------------|-------------------|-------------------|-------------------|----------------------------|-------------------|-------------------|-----------------------------|
----------------------------|-------------------|-------------------|-------------------|----------------------------|-------------------|-------------------|-----------------------------|
--7-------------------------|--5----------------|-------------------|-------------------|--7-------------------------|--5----------------|-------------------|-----------------------------|
--7------------5------------|--5----------------|--6----------------|--7----------------|--7------------5------------|--5----------------|--6----------------|--7----------------L---------|
--5------------5------------|--3----------------|--6----------------|--7----------------|--5------------5------------|--3----------------|--6----------------|--7----------------L---------|
---------------3------------|-------------------|--4----------------|--5----------------|---------------3------------|-------------------|--4----------------|--5----------------L---------|


                                                                                                                                                                    TP  TP  
  E.  S  E   E   E  E     E   E   Q     Q       Q     E   E   E  E      E   E   Q     Q       E  E   E   E   E  E      E   E   Q    Q       W                E  E   E   E   
-----------------------|---------------------|----------------------|----------------------|-----------------------|---------------------|-------------------------13--15--|
-----------------------|---------------------|----------------------|--10--11--13~---------|--------22--20--18-----|--17--18--20---------|---------------------------------|
-----------------------|---------------------|--7----14--12--10-----|----------------------|-----------------------|---------------------|---------------------------------|
--7-----14--12--10-----|--9--10--12~---------|--7-------------------|----------------------|--9--------------------|---------------------|--2----------------L--L----------|
--7--------------------|---------------------|--5-------------------|----------------------|--9--------------------|---------------------|--2----------------L--L----------|
--5--------------------|---------------------|----------------------|----------------------|--7--------------------|---------------------|--0----------------L--L----------|


   TP            TP               TP            TP               TP            TP               TP           TP               TP            TP               TP            TP            
   H.            H.               H.            H.               H.            H.               H.           H.               H.            H.               H.            H.            
--17------------13------------|--15------------12------------|--13------------10------------|--12------------9------------|--17------------13------------|--15------------12------------|
------------------------------|------------------------------|------------------------------|-----------------------------|------------------------------|------------------------------|
------------------------------|------------------------------|------------------------------|-----------------------------|------------------------------|------------------------------|
------------------------------|------------------------------|------------------------------|-----------------------------|------------------------------|------------------------------|
------------------------------|------------------------------|------------------------------|-----------------------------|------------------------------|------------------------------|
------------------------------|------------------------------|------------------------------|-----------------------------|------------------------------|------------------------------|


   TP            TP              PM PM PM PM                      PM PM PM PM                      PM PM PM PM                            PM PM PM PM                          
   H.            H.              E  E  E  Q    H.           E     E  E  E  Q    H.           E     E  E  E  Q    S S E  E  E  E  Q        E  E  E  Q    S S E  E  E  E  Q      
--13------------10------------|--------------------------------|--------------------------------|--------------------------------------|--------------------------------------|
------------------------------|--------------------------------|--------------------------------|--------------------9--9--9--9--L\----|--------------------9--9--9--9--L\----|
------------------------------|--------------------------------|--------------------------------|--------------------------------------|--------------------------------------|
------------------------------|--------------------------------|--------------------------------|--------------------6--6--6--6--L\----|--------------------6--6--6--6--L\----|
------------------------------|--3--3--3--3--------------------|--3--3--3--3--------------------|--2--2--2--2--------------------------|--2--2--2--2--------------------------|
------------------------------|--1--1--1--1--------------------|--1--1--1--1--------------------|--0--0--0--0--------------------------|--0--0--0--0--------------------------|


  PM PM PM PM                                PM PM PM PM                                PM PM PM PM                            PM PM PM PM                          
  E  E  E  Q    S S  E   E   E   E  Q        E  E  E  Q    S S  E   E   E   E  Q        E  E  E  Q    S S E  E  E  E  Q        E  E  E  Q    S S E  E  E  E  Q      
------------------------------------------|------------------------------------------|--------------------------------------|--------------------------------------|
--------------------10--10--10--10--L\----|--------------------10--10--10--10--L\----|--------------------9--9--9--9--L\----|--------------------9--9--9--9--L\----|
------------------------------------------|------------------------------------------|--------------------------------------|--------------------------------------|
---------------------7---7---7---7--L\----|---------------------7---7---7---7--L\----|--------------------6--6--6--6--L\----|--------------------6--6--6--6--L\----|
--3--3--3--3------------------------------|--3--3--3--3------------------------------|--2--2--2--2--------------------------|--2--2--2--2--------------------------|
--1--1--1--1------------------------------|--1--1--1--1------------------------------|--0--0--0--0--------------------------|--0--0--0--0--------------------------|


  Q    Q    Q    Q    Q    Q       Q    Q    Q    Q    Q     Q       E  E  E  E  E  E  E  E  E  E  E  E     E  E  E  E  E  E  E  E  E  E  E  E     E  E  E  E  E  E  Q    H         
--------------------------------|---------------------------------|--------------------------------------|--------------------------------------|----------------------------------|
--------------------------------|---------------------------------|--------------------------------------|--6--5--------------------------------|----------------------------------|
--------------------------------|---------------------------------|--2--1--------------------------------|--------7--5--------------------------|----------------------------------|
--------------------------------|---------------------------------|--------3--2--------------------------|--------------9--7--6--7--9--7--6--3--|--2--3--6--3--2--0--2-------------|
--------------------------------|---------------------------------|--------------5--3--2--3--5--3--2--0--|--------------------------------------|----------------------------------|
--1----3----5----4----5----7----|--5----7----8----7----8----10----|--------------------------------------|--------------------------------------|----------------------------------|


  H.           H.              W.                  W.                  W.                  H.           H.              W.                  W.                  W                E  Q.      
----------------------------|-------------------|-------------------|-------------------|----------------------------|-------------------|-------------------|-----------------------------|
----------------------------|-------------------|-------------------|-------------------|----------------------------|-------------------|-------------------|-----------------------------|
--7-------------------------|--5----------------|-------------------|-------------------|--7-------------------------|--5----------------|-------------------|-----------------------------|
--7------------5------------|--5----------------|--6----------------|--7----------------|--7------------5------------|--5----------------|--6----------------|--7----------------L---------|
--5------------5------------|--3----------------|--6----------------|--7----------------|--5------------5------------|--3----------------|--6----------------|--7----------------L---------|
---------------3------------|-------------------|--4----------------|--5----------------|---------------3------------|-------------------|--4----------------|--5----------------L---------|


---------|---------|---------|---------|---------|---------|---------|---------|---------||
---------|---------|---------|---------|---------|---------|---------|---------|---------||
---------|---------|---------|---------|---------|---------|---------|---------|---------||
---------|---------|---------|---------|---------|---------|---------|---------|---------||
---------|---------|---------|---------|---------|---------|---------|---------|---------||
---------|---------|---------|---------|---------|---------|---------|---------|---------||


                                                                                          Tersesal                                                                                            


                                                                                                                                                                                       J-Rocks
Gitar 2



      E   E  E  E  E  E  E   E       E   E  E  E  E  E  E   E       E   E  E  E  E  E  E   E       E   E  E  E  E  E  E   E       E   E  E  E  E  E  E   E       E   E  E  E  E  E  E   E    
E||----------------0-------------|----------------0-------------|----------------0-------------|----------------0-------------|----------------0-------------|----------------0-------------|
B||----------1-----------1-------|----------1-----------1-------|----------1-----------1-------|----------1-----------1-------|----------1-----------1-------|----------1-----------1-------|
G||-------------2-----2-----(2)--|-------------2-----2-----(2)--|-------------2-----2-----(2)--|-------------2-----2-----(2)--|-------------2-----2-----(2)--|-------------2-----2-----(2)--|
D||-------2----------------------|-------2----------------------|-------2----------------------|-------2----------------------|-------2----------------------|-------2----------------------|
A||--(0)-------------------------|--(0)-------------------------|--(0)-------------------------|--(0)-------------------------|--(0)-------------------------|--(0)-------------------------|
E||------------------------------|------------------------------|------------------------------|------------------------------|------------------------------|------------------------------|


   E   E  E  E  E  E  E   E       E   E  E  E  E  E  E   E       E   E  E  E  E  E  E   E       E   E  E  E  E  E  E   E       E   E  E  E  E  E  E   E       E   E  E  E  E  E  E   E    
----------------0-------------|----------------0-------------|----------------0-------------|----------------0-------------|----------------0-------------|----------------0-------------|
----------1-----------1-------|----------1-----------1-------|----------1-----------1-------|----------1-----------1-------|----------1-----------1-------|----------1-----------1-------|
-------------2-----2-----(2)--|-------------2-----2-----(2)--|-------------2-----2-----(2)--|-------------2-----2-----(2)--|-------------2-----2-----(2)--|-------------2-----2-----(2)--|
-------2----------------------|-------2----------------------|-------2----------------------|-------2----------------------|-------2----------------------|-------2----------------------|
--(0)-------------------------|--(0)-------------------------|--(0)-------------------------|--(0)-------------------------|--(0)-------------------------|--(0)-------------------------|
------------------------------|------------------------------|------------------------------|------------------------------|------------------------------|------------------------------|


   E   E  E  E  E  E  E   E       E   E  E  E  E  E  E   E      E  E  E  E  E  E  E  E     E  E  E  E  E  E  E  E     E  E  E  E  E  E  E  E     E  E  E  E  E  E  E  E   
----------------0-------------|----------------0-------------|-----------1-----1-----1--|-----------1-----1-----1--|--------0-----0--------0--|--------0-----0--------0--|
----------1-----------1-------|----------1-----------1-------|--------------0-----1-----|--------------0-----1-----|-----0-----0-----0--------|-----0-----0-----0--------|
-------------2-----2-----(2)--|-------------2-----2-----(2)--|--------2-----------------|--------2-----------------|--------------------1-----|--------------------1-----|
-------2----------------------|-------2----------------------|-----2--------------------|-----2--------------------|--------------------------|--------------------------|
--(0)-------------------------|--(0)-------------------------|--0-----------------------|--0-----------------------|--------------------------|--------------------------|
------------------------------|------------------------------|--------------------------|--------------------------|--4-----------------------|--0-----------------------|


  E  E  E  E  E  E  E  E     E  E  E  E  E  E  E  E     E  E  E  E  E  E  E  E     E  E  E  E  E  E  E  E     E  E  E  E  E  E  E  E     E  E  E  E  E  E  E  E   
--------------0-----------|--------------0-----------|--------------0-----------|--------------0-----------|--------------0-----------|--------------0-----------|
--------1-----------1-----|--------0-----------0-----|--------1--------1-----1--|--------1--------1-----1--|-----------3-----3-----3--|-----------3-----3-----3--|
-----------2-----2-----2--|-----------2-----2-----2--|-----2-----2--------2-----|-----2-----2--------2-----|--------2-----------2-----|--------2-----------2-----|
-----2--------------------|-----2--------------------|--------------------------|--------------------------|-----4--------------------|-----4--------------------|
--0-----------------------|--0-----------------------|--------------------------|--------------------------|--2-----------------------|--2-----------------------|
--------------------------|--------------------------|--1-----------------------|--1-----------------------|--------------------------|--------------------------|


  E   E   E  E  E  E  E  E     E   E   E  E  E  E  E  E     E  E  E  E  E  E  E  E     E  E  E  E  E  E  E  E     E  E  E  E  E  E  E  E     E  E  E  E  E  E  E  E   
----------------2-----------|----------------2-----------|--------------0-----------|--------------0-----------|--------------0-----------|--------------0-----------|
-------------4-----4-----4--|-------------4-----4-----4--|--------3--------3-----3--|--------3--------3-----3--|--------1-----------1-----|--------1-----------1-----|
----------2-----------2-----|----------2-----------2-----|-----1-----1--------1-----|-----1-----1--------1-----|-----------2-----2-----2--|-----------2-----2-----2--|
-----(0)--------------------|-----(0)--------------------|--------------------------|--------------------------|-----2--------------------|-----2--------------------|
--2-------------------------|--2-------------------------|--------------------------|--------------------------|--0-----------------------|--0-----------------------|
----------------------------|----------------------------|--4-----------------------|--0-----------------------|--------------------------|--------------------------|


  E  E  E  E  E  E  E  E     E  E  E  E  E  E  E  E     E  E  E  E  E  E  E  E     E  E  E  E  E  E  E  E     E  E  E  E  E  E  E  E     E  E  E  E  E  E  E  E     E  E  E  E  E  E  E  E   
-----------1-----1-----1--|-----------1-----1-----1--|--------0-----0--------0--|--------0-----0--------0--|--------------0-----------|--------------0-----------|--------------0-----------|
--------------0-----1-----|--------------0-----1-----|-----0-----0-----0--------|-----0-----0-----0--------|--------1-----------1-----|--------0-----------0-----|--------1--------1-----1--|
--------2-----------------|--------2-----------------|--------------------1-----|--------------------1-----|-----------2-----2-----2--|-----------2-----2-----2--|-----2-----2--------2-----|
-----2--------------------|-----2--------------------|--------------------------|--------------------------|-----2--------------------|-----2--------------------|--------------------------|
--0-----------------------|--0-----------------------|--------------------------|--------------------------|--0-----------------------|--0-----------------------|--------------------------|
--------------------------|--------------------------|--4-----------------------|--0-----------------------|--------------------------|--------------------------|--1-----------------------|


  E  E  E  E  E  E  E  E     E  E  E  E  E  E  E  E     E  E  E  E  E  E  E  E     E   E   E  E  E  E  E  E     E   E   E  E  E  E  E  E     E  E  E  E  E  E  E  E   
--------------0-----------|--------------0-----------|--------------0-----------|----------------2-----------|----------------2-----------|--------------0-----------|
--------1--------1-----1--|-----------3-----3-----3--|-----------3-----3-----3--|-------------4-----4-----4--|-------------4-----4-----4--|--------3--------3-----3--|
-----2-----2--------2-----|--------2-----------2-----|--------2-----------2-----|----------2-----------2-----|----------2-----------2-----|-----1-----1--------1-----|
--------------------------|-----4--------------------|-----4--------------------|-----(0)--------------------|-----(0)--------------------|--------------------------|
--------------------------|--2-----------------------|--2-----------------------|--2-------------------------|--2-------------------------|--------------------------|
--1-----------------------|--------------------------|--------------------------|----------------------------|----------------------------|--4-----------------------|


  E  E  E  E  E  E  E  E     E  E  E  E  E  E  E  E     E  E  E  E  E  E  E  E     E  E  E  E  E  E  E  E     E  E  E  E  E  E  E  E      E  E  E  E   E  E  E  E   
--------------0-----------|--8-----------8-----------|--7-----------7-----------|--7-----------7-----------|--5-----------5-----------|--10-----------10-----------|
--------3--------3-----3--|-----6-----6-----6-----6--|-----6-----6-----6-----6--|-----5-----5-----5-----5--|-----5-----5-----5-----5--|------9-----9------9-----9--|
-----1-----1--------1-----|--------7-----------7-----|--------7-----------7-----|--------7-----------7-----|--------7-----------7-----|---------9------------9-----|
--------------------------|--------------------------|--------------------------|--------------------------|--------------------------|----------------------------|
--------------------------|--------------------------|--------------------------|--------------------------|--------------------------|----------------------------|
--0-----------------------|--------------------------|--------------------------|--------------------------|--------------------------|----------------------------|


  E  E  E  E  E  E  E  E     E   E  E   E  E   E  E   E     E   E  E   E  E   E  E   E     E  E  E  E  E  E  E  E     E  E  E  E  E  E  E  E     E  E  E  E  E  E  E  E   
--7-----------7-----------|--8-------------8-------------|--9-------------9-------------|--8-----------8-----------|--7-----------7-----------|--7-----------7-----------|
-----9-----9-----9-----9--|-----10-----10-----10-----10--|-----10-----10-----10-----10--|-----6-----6-----6-----6--|-----6-----6-----6-----6--|-----5-----5-----5-----5--|
--------7-----------7-----|---------9-------------9------|---------9-------------9------|--------7-----------7-----|--------7-----------7-----|--------7-----------7-----|
--------------------------|------------------------------|------------------------------|--------------------------|--------------------------|--------------------------|
--------------------------|------------------------------|------------------------------|--------------------------|--------------------------|--------------------------|
--------------------------|------------------------------|------------------------------|--------------------------|--------------------------|--------------------------|


                                                                                      ^                                                                                                
  E  E  E  E  E  E  E  E      E  E  E  E   E  E  E  E     E  E  E  E  E  E  E  E      W                 H           S S S S Q    E   E     S S S S Q    E   E     S S S S Q    E   E   
--5-----------5-----------|--10-----------10-----------|--7-----------7-----------|---8-----------------L--------|----------------------|----------------------|----------------------|
-----5-----5-----5-----5--|------9-----9------9-----9--|-----9-----9-----9-----9--|--10-----------------L--------|----------------------|----------------------|----------------------|
--------7-----------7-----|---------9------------9-----|--------7-----------7-----|---9-----------------L--------|----------7----7s--9--|----------7----7s--9--|----------7----7s--9--|
--------------------------|----------------------------|--------------------------|------------------------------|----------------------|----------------------|----------------------|
--------------------------|----------------------------|--------------------------|------------------------------|----------------------|----------------------|----------------------|
--------------------------|----------------------------|--------------------------|------------------------------|--5-5-5---------------|--5-5-5---------------|--5-5-5---------------|


  E  Q    E.  S E     S S S S Q    E   E     S S S S Q    E   E     S S S S Q    E   E     E  Q    E.  S E     S S S S Q    E    E     S S S S Q    E    E     S S S S Q    E    E   
-------------------|----------------------|----------------------|----------------------|-------------------|-----------------------|-----------------------|-----------------------|
-------------------|----------------------|----------------------|----------------------|-------------------|----------8----8s--10--|----------8----8s--10--|----------8----8s--10--|
-------------------|----------7----7s--9--|----------7----7s--9--|----------7----7s--9--|-------------------|--9-9-9----------------|--9-9-9----------------|--9-9-9----------------|
--3--3----3-----3--|----------------------|----------------------|----------------------|--3--3----3-----3--|-----------------------|-----------------------|-----------------------|
--3--3----3-----3--|----------------------|----------------------|----------------------|--3--3----3-----3--|-----------------------|-----------------------|-----------------------|
--1--1----1-----1--|--5-5-5---------------|--5-5-5---------------|--5-5-5---------------|--1--1----1-----1--|-----------------------|-----------------------|-----------------------|


  E  Q    E.  S E     S S S S Q    E    E     S S S S Q    E    E     S S S S Q    E    E     E  Q    E.  S E      T  T  T  T  E    Q     T  T  T  T  T  T  T  T  E    E   
-------------------|-----------------------|-----------------------|-----------------------|-------------------|-------------------------------------------------17s--20--|
-------------------|----------8----8s--10--|----------8----8s--10--|----------8----8s--10--|-------------------|--------------15s--17-------------------------17----------|
-------------------|--9-9-9----------------|--9-9-9----------------|--9-9-9----------------|-------------------|-----------14------------14----------------17-------------|
--3--3----3-----3--|-----------------------|-----------------------|-----------------------|--3--3----3-----3--|--------14------------------14----------19----------------|
--3--3----3-----3--|-----------------------|-----------------------|-----------------------|--3--3----3-----3--|-----15------------------------15----19-------------------|
--1--1----1-----1--|-----------------------|-----------------------|-----------------------|--1--1----1-----1--|--17------------------------------17----------------------|


   S  S  S  S  S  H          E.      W                     W                   E  E  E  E  E  E  E  E     E  E  E  E  E  E  E  E     E  E  E  E  E  E  E  E     E  E  E  E  E  E  E  E   
--20-17--------------------------|---------------------|--------------------|--------------------------|--------------------------|--------------------------|--------------------------|
--------20-17----20b---------L---|---L~----------------|---L----------------|--------------------------|--------------------------|--------------------------|--------------------------|
--------------17-----------------|---------------------|--------------------|--------------------------|--------------------------|--7--7--7--7--7--7--7--7--|--7--7--7--7--7--7--7--7--|
---------------------------------|---------------------|--------------------|--7--7--7--7--7--7--7--7--|--7--7--7--7--7--7--7--7--|--7--7--7--7--7--7--7--7--|--7--7--7--7--7--7--7--7--|
---------------------------------|---------------------|--------------------|--7--7--7--7--7--7--7--7--|--7--7--7--7--7--7--7--7--|--5--5--5--5--5--5--5--5--|--5--5--5--5--5--5--5--5--|
---------------------------------|---------------------|--------------------|--5--5--5--5--5--5--5--5--|--5--5--5--5--5--5--5--5--|--------------------------|--------------------------|


  E  E  E  E  E  E  E  E     E  E  E  E  E  E  E  E     E  E  E  E  E  E  E  E     E  E  E  E  E  E  E  E     E  E  E  E  E  E  E  E     E  E  E  E  E  E  E  E     E  E  E  E  E  E  E  E   
--------------------------|--------------------------|--------------------------|--------------------------|--------------------------|--------------------------|--------------------------|
--------------------------|--------------------------|--------------------------|--------------------------|--------------------------|--------------------------|--------------------------|
--------------------------|--------------------------|--2--2--2--2--2--2--2--2--|--------------------------|--------------------------|--------------------------|--4--4--4--4--4--4--4--4--|
--6--6--6--6--6--6--6--6--|--2--2--2--2--2--2--2--2--|--2--2--2--2--2--2--2--2--|--5--5--5--5--5--5--5--5--|--3--3--3--3--3--3--3--3--|--3--3--3--3--3--3--3--3--|--4--4--4--4--4--4--4--4--|
--6--6--6--6--6--6--6--6--|--2--2--2--2--2--2--2--2--|--0--0--0--0--0--0--0--0--|--5--5--5--5--5--5--5--5--|--3--3--3--3--3--3--3--3--|--3--3--3--3--3--3--3--3--|--2--2--2--2--2--2--2--2--|
--4--4--4--4--4--4--4--4--|--0--0--0--0--0--0--0--0--|--------------------------|--3--3--3--3--3--3--3--3--|--1--1--1--1--1--1--1--1--|--1--1--1--1--1--1--1--1--|--------------------------|


  E  E  E  E  E  E  E  E     E  E  E  E  E  E  E  E     E  E  E  E  E  E  E  E     E  E  E  E  E  E  E  E     E  E  E  E  E  E  E  E     E  E  E  E  E  E  E  E     E  E  E  E  E  E  E  E   
--------------------------|--------------------------|--------------------------|--------------------------|--------------------------|--------------------------|--------------------------|
--------------------------|--------------------------|--------------------------|--------------------------|--------------------------|--------------------------|--------------------------|
--4--4--4--4--4--4--4--4--|--4--4--4--4--4--4--4--4--|--4--4--4--4--4--4--4--4--|--------------------------|--------------------------|--------------------------|--------------------------|
--4--4--4--4--4--4--4--4--|--4--4--4--4--4--4--4--4--|--4--4--4--4--4--4--4--4--|--6--6--6--6--6--6--6--6--|--2--2--2--2--2--2--2--2--|--7--7--7--7--7--7--7--7--|--7--7--7--7--7--7--7--7--|
--2--2--2--2--2--2--2--2--|--2--2--2--2--2--2--2--2--|--2--2--2--2--2--2--2--2--|--6--6--6--6--6--6--6--6--|--2--2--2--2--2--2--2--2--|--7--7--7--7--7--7--7--7--|--7--7--7--7--7--7--7--7--|
--------------------------|--------------------------|--------------------------|--4--4--4--4--4--4--4--4--|--0--0--0--0--0--0--0--0--|--5--5--5--5--5--5--5--5--|--5--5--5--5--5--5--5--5--|


  E  E  E  E  E  E  E  E     E  E  E  E  E  E  E  E     E  E  E  E  E  E  E  E     E  E  E  E  E  E  E  E     E  E  E  E  E  E  E  E     E  E  E  E  E  E  E  E     E  E  E  E  E  E  E  E   
--------------------------|--------------------------|--------------------------|--------------------------|--------------------------|--------------------------|--------------------------|
--------------------------|--------------------------|--------------------------|--------------------------|--------------------------|--------------------------|--------------------------|
--7--7--7--7--7--7--7--7--|--7--7--7--7--7--7--7--7--|--------------------------|--------------------------|--2--2--2--2--2--2--2--2--|--------------------------|--------------------------|
--7--7--7--7--7--7--7--7--|--7--7--7--7--7--7--7--7--|--6--6--6--6--6--6--6--6--|--2--2--2--2--2--2--2--2--|--2--2--2--2--2--2--2--2--|--5--5--5--5--5--5--5--5--|--3--3--3--3--3--3--3--3--|
--5--5--5--5--5--5--5--5--|--5--5--5--5--5--5--5--5--|--6--6--6--6--6--6--6--6--|--2--2--2--2--2--2--2--2--|--0--0--0--0--0--0--0--0--|--5--5--5--5--5--5--5--5--|--3--3--3--3--3--3--3--3--|
--------------------------|--------------------------|--4--4--4--4--4--4--4--4--|--0--0--0--0--0--0--0--0--|--------------------------|--3--3--3--3--3--3--3--3--|--1--1--1--1--1--1--1--1--|


  E  E  E  E  E  E  E  E     E  E  E  E  E  E  E  E     E  E  E  E  E  E  E  E     E  E  E  E  E  E  E  E     E  E  E  E  E  E  E  E     E  E  E  E  E  E  E  E     Q    H.            
--------------------------|--------------------------|--------------------------|--------------------------|--------------------------|--------------------------|--------------------|
--------------------------|--------------------------|--------------------------|--------------------------|--------------------------|--------------------------|--------------------|
--------------------------|--4--4--4--4--4--4--4--4--|--4--4--4--4--4--4--4--4--|--4--4--4--4--4--4--4--4--|--4--4--4--4--4--4--4--4--|--------------------------|--------------------|
--3--3--3--3--3--3--3--3--|--4--4--4--4--4--4--4--4--|--4--4--4--4--4--4--4--4--|--4--4--4--4--4--4--4--4--|--4--4--4--4--4--4--4--4--|--6--6--6--6--6--6--6--6--|--6-----------------|
--3--3--3--3--3--3--3--3--|--2--2--2--2--2--2--2--2--|--2--2--2--2--2--2--2--2--|--2--2--2--2--2--2--2--2--|--2--2--2--2--2--2--2--2--|--6--6--6--6--6--6--6--6--|--6-----------------|
--1--1--1--1--1--1--1--1--|--------------------------|--------------------------|--------------------------|--------------------------|--4--4--4--4--4--4--4--4--|--4-----------------|


   Q.     E   Q    H.              Q     Q    Q     H.              E  E  E  E   Q    E  E  E  E   Q        Q      Q     Q     H.               Q.     E   Q    H.            
--------------------------------|--------------------------------|--------------------------------------|-----------------------------------|--------------------------------|
--------------------------------|--------------------------------|-----------9--12-------------9--12----|--12b----12------------------------|--------------------------------|
--10------9---------------------|--9-----------------------------|--9-----9-----------9-----9-----------|---------------14------------------|--10------9---------------------|
-------------12----9------------|-------12----9----10------------|-----9-----------------9--------------|---------------------14------------|-------------12----9------------|
--------------------------------|--------------------------------|--------------------------------------|-----------------------------------|--------------------------------|
--------------------------------|--------------------------------|--------------------------------------|-----------------------------------|--------------------------------|


  Q     Q    Q     H.              E   E  E  E   Q    E   E  E  E   Q        Q      Q     Q     H         Q        E.  S  E   E   E  E      E   E   Q     Q       Q     E   E   E  E   
--------------------------------|----------------------------------------|--------------------------------------|-----------------------|----------------------|----------------------|
--------------------------------|------------9--12--------------9--12----|--12b----12---------------------------|-----------------------|----------------------|-------15--13--11-----|
--9-----------------------------|---------9------------------9-----------|---------------14----14---------L\----|--------17--16--14-----|--13--14--16~---------|--7-------------------|
-------12----9----10------------|--7--10--------------7--10--------------|--------------------------------------|--7--------------------|----------------------|--7-------------------|
--------------------------------|----------------------------------------|--------------------------------------|--7--------------------|----------------------|--5-------------------|
--------------------------------|----------------------------------------|--------------------------------------|--5--------------------|----------------------|----------------------|


                                                                                             TP  TP     TP            TP               TP            TP            
  E  E   Q     Q       E  E   E   E   E  E      E   E   Q    Q       W                E  E   E   E      H.            H.               H.            H.            
--------------------|-----------------------|---------------------|---------------------------------|------------------------------|------------------------------|
--6--8--10~---------|-----------------------|---------------------|-------------------------10--12--|--13------------12------------|--13------------10------------|
--------------------|--------21--19--17-----|--16--17--19---------|---------------------------------|------------------------------|------------------------------|
--------------------|--9--------------------|---------------------|--2----------------L--L----------|------------------------------|------------------------------|
--------------------|--9--------------------|---------------------|--2----------------L--L----------|------------------------------|------------------------------|
--------------------|--7--------------------|---------------------|--0----------------L--L----------|------------------------------|------------------------------|


   TP           TP               TP            TP               TP            TP               TP            TP               TP           TP            
   H.           H.               H.            H.               H.            H.               H.            H.               H.           H.            
-----------------------------|------------------------------|------------------------------|------------------------------|-----------------------------|
-----------------------------|--10------------10------------|--13------------12------------|--13------------10------------|-----------------------------|
--10------------7------------|------------------------------|------------------------------|------------------------------|--10------------7------------|
-----------------------------|------------------------------|------------------------------|------------------------------|-----------------------------|
-----------------------------|------------------------------|------------------------------|------------------------------|-----------------------------|
-----------------------------|------------------------------|------------------------------|------------------------------|-----------------------------|


  PM PM PM PM                                  PM PM PM PM                                  PM PM PM PM                              PM PM PM PM                            
  E  E  E  Q    S S   E   E   E   E   Q        E  E  E  Q    S S   E   E   E   E   Q        E  E  E  Q    S S  E  E  E  E   Q        E  E  E  Q    S S  E  E  E  E   Q      
--------------------------------------------|--------------------------------------------|----------------------------------------|----------------------------------------|
--------------------------------------------|--------------------------------------------|----------------------------------------|----------------------------------------|
------------------7s-10--10--10--10---L\----|------------------7s-10--10--10--10---L\----|------------------7s-9--9--9--9---L\----|------------------7s-9--9--9--9---L\----|
--------------------------------------------|--------------------------------------------|----------------------------------------|----------------------------------------|
--3--3--3--3------5s--8---8---8---8---L\----|--3--3--3--3------5s--8---8---8---8---L\----|--2--2--2--2------5s-7--7--7--7---L\----|--2--2--2--2------5s-7--7--7--7---L\----|
--1--1--1--1--------------------------------|--1--1--1--1--------------------------------|--0--0--0--0----------------------------|--0--0--0--0----------------------------|


  PM PM PM PM                                  PM PM PM PM                                  PM PM PM PM                              PM PM PM PM                            
  E  E  E  Q    S S   E   E   E   E   Q        E  E  E  Q    S S   E   E   E   E   Q        E  E  E  Q    S S  E  E  E  E   Q        E  E  E  Q    S S  E  E  E  E   Q      
--------------------------------------------|--------------------------------------------|----------------------------------------|----------------------------------------|
--------------------------------------------|--------------------------------------------|----------------------------------------|----------------------------------------|
------------------7s-10--10--10--10---L\----|------------------7s-10--10--10--10---L\----|------------------7s-9--9--9--9---L\----|------------------7s-9--9--9--9---L\----|
--------------------------------------------|--------------------------------------------|----------------------------------------|----------------------------------------|
--3--3--3--3------5s--8---8---8---8---L\----|--3--3--3--3------5s--8---8---8---8---L\----|--2--2--2--2------5s-7--7--7--7---L\----|--2--2--2--2------5s-7--7--7--7---L\----|
--1--1--1--1--------------------------------|--1--1--1--1--------------------------------|--0--0--0--0----------------------------|--0--0--0--0----------------------------|


  Q    Q    Q    Q    Q    Q       Q    Q    Q    Q    Q     Q       E  E  E  E  E  E  E  E  E  E  E  E     E  E  E  E  E  E  E  E  E  E  E  E     E  E  E  E  E  E  Q    H         
--------------------------------|---------------------------------|--------------------------------------|--------------------------------------|----------------------------------|
--------------------------------|---------------------------------|--------------------------------------|--------------------------------------|----------------------------------|
--------------------------------|---------------------------------|--2--1--------------------------------|--2--1--------------------------------|----------------------------------|
--------------------------------|---------------------------------|--------3--2--------------------------|--------3--2--------------------------|----------------------------------|
--------------------------------|---------------------------------|--------------5--3--2--3--5--3--2--0--|--------------5--3--2--3--5--3--2--0--|--------2-------------------------|
--1----3----5----4----5----7----|--5----7----8----7----8----10----|--------------------------------------|--------------------------------------|--4--5-----5--4--1--0-------------|


   Q.     E   Q    H.              Q     Q    Q     H.              E  E  E  E   Q    E  E  E  E   Q        Q      Q     Q     H.               Q.     E   Q    H.            
--------------------------------|--------------------------------|--------------------------------------|-----------------------------------|--------------------------------|
--------------------------------|--------------------------------|-----------9--12-------------9--12----|--12b----12------------------------|--------------------------------|
--10------9---------------------|--9-----------------------------|--9-----9-----------9-----9-----------|---------------14------------------|--10------9---------------------|
-------------12----9------------|-------12----9----10------------|-----9-----------------9--------------|---------------------14------------|-------------12----9------------|
--------------------------------|--------------------------------|--------------------------------------|-----------------------------------|--------------------------------|
--------------------------------|--------------------------------|--------------------------------------|-----------------------------------|--------------------------------|


  Q     Q    Q     H.              E   E  E  E   Q    E   E  E  E   Q        Q      Q     Q     H         Q                                                                               
--------------------------------|----------------------------------------|--------------------------------------|-------|-------|-------|-------|-------|-------|-------|-------|-------||
--------------------------------|------------9--12--------------9--12----|--12b----12---------------------------|-------|-------|-------|-------|-------|-------|-------|-------|-------||
--9-----------------------------|---------9------------------9-----------|---------------14----14---------L\----|-------|-------|-------|-------|-------|-------|-------|-------|-------||
-------12----9----10------------|--7--10--------------7--10--------------|--------------------------------------|-------|-------|-------|-------|-------|-------|-------|-------|-------||
--------------------------------|----------------------------------------|--------------------------------------|-------|-------|-------|-------|-------|-------|-------|-------|-------||
--------------------------------|----------------------------------------|--------------------------------------|-------|-------|-------|-------|-------|-------|-------|-------|-------||



www.yunanmr.co.nr

 

Chord Gitar Terkait

Loading...

Chord J Rocks

Advertisements

Loading...

Chord Gitar Terpopuler

Advertisements

Loading...

Our Facebook Page