Menu
Chord Wonder Woman [Solo Tab] By Mulan Jameela
Chord Lagu Wonder Woman [Solo Tab]
Kunci Gitar Wonder Woman [solo Tab]
solo tab

E|-------------------------------------------|
B|-------------------------------------------|
G|----------7------------------------7-------|
D|-7h9---7h9-9p7----7-------7h9---7h9-9p7----|
A|----10--------10---10-10-----10--------10--|
E|-------------------------------------------|

E|-------------------------------------------------15--------------|
B|---------------------------------15----------------15------15----|
G|-/12-----12-12--14b16-14b16-14b16--16r14-12-14~~-----14b16-------|
D|----12h14-----14-------------------------------------------------|
A|-----------------------------------------------------------------|
E|-----------------------------------------------------------------|

E|-------------------------------------------------------------------------|
B|------------------------------------------------------------15-----------|
G|-12-12-----12-----14b16-14b16-12~--12-12-----12--14-12-14b16--16r14-12---|
D|------14-12--14-12----------------------14-12----------------------------|
A|-------------------------------------------------------------------------|
E|-------------------------------------------------------------------------|

E|----------------------------------------------------------------------------|
B|--------------------------------12-----------12-----12-----12-----12-------a-|
G|-------------12-----14-12--12-14--14-12-14b16--14b16--14b16--14b16--14b16---|
D|-14-12--12-14--14-12-----14-------------------------------------------------|
A|------14--------------------------------------------------------------------|
E|----------------------------------------------------------------------------|

E|------------12-----12-----12-----12-------15/17-15-------------|
B|-12-12-15b17--15b17--15b17--15b17--15b17-----------------------|
G|---------------------------------------------------------------|
D|---------------------------------------------------------------|
A|---------------------------------------------------------------|
E|---------------------------------------------------------------|


 

Chord Gitar Terkait